Oops, an error
Loading. Please wait.

This Is Our Town Tab

version 2
version 2

Acoustic

Whole song

1,669 views 1 this week
no commentswrite comment
1 2 3 4 5
accurate
x 3
add to favorites
launch autoscroll
font size
0
reset
how to read this tab
guitar tuner
Autoscroll
slow
fast
+/-
esc
set tempo
stop
Help us to improve Ultimate-Guitar.com Take our survey!
×
Author
Difficulty
Tuning
novice
D# G# C# F# A# D#
             This Is Our Town (acoustic) – We The Kings

Absolutely beautiful song!!
Leave a comment if you have any corrections :D

***NOTE: TUNING IS Eb, NOT STANDARD!!***

Intro:
eb|-----------0----------------0----------------0-------------0--------|
Bb|------3------3---3------3-----3---3------0-----0---0-----0---0---0--|
Gb|----2---2------2------2---2-----2------1---1-----1-----1-------1----|
Db|--0-----------------0----------------2---------------2--------------|
Ab|--------------------------------------------------------------------|
Eb|--------------------------------------------------------------------|

eb|-----------0----------------0----------------0-------------0--------|
Bb|------2------2---2------2-----2---2------0-----0---0-----0---0---0--|
Gb|----4---4------4------4---4-----4------6---6-----6-----6-------6----|
Db|--4-----------------4----------------7---------------7--------------|
Ab|--------------------------------------------------------------------|
Eb|--------------------------------------------------------------------|

Verse:
eb|-----------0----------------0----------------0-------------0--------|
Bb|------3------3---3------3-----3---3------0-----0---0-----0---0---0--|
Gb|----2---2------2------2---2-----2------1---1-----1-----1-------1----|
Db|--0-----------------0----------------2---------------2--------------|
Ab|--------------------------------------------------------------------|
Eb|--------------------------------------------------------------------|

eb|-----------0----------------0----------------0-------------0--------|
Bb|------2------2---2------2-----2---2------0-----0---0-----0---0---0--|
Gb|----4---4------4------4---4-----4------6---6-----6-----6-------6----|
Db|--4-----------------4----------------7---------------7--------------|
Ab|--------------------------------------------------------------------|
Eb|--------------------------------------------------------------------|

eb|-----------0----------------0--------0~--0------|
Bb|------3------3---3------3-----3---3--0~----0----|
Gb|----2---2------2------2---2-----2----1~------1--|
Db|--0-----------------0----------------2~---------|
Ab|-------------------------------------2~---------|
Eb|-------------------------------------0~---------|

eb|-----------0----------------0----------------0-------------0--------|
Bb|------3------3---3------3-----3---3------0-----0---0-----0---0---0--|
Gb|----2---2------2------2---2-----2------1---1-----1-----1-------1----|
Db|--0-----------------0----------------2---------------2--------------|
Ab|--------------------------------------------------------------------|
Eb|--------------------------------------------------------------------|

eb|-----------0----------------0----------------0---------0~--|
Bb|------3------3---3------3-----3---3------0-----0---0---0~--|
Gb|----2---2------2------2---2-----2------1---1-----1-----1~--|
Db|--0-----------------0----------------2-----------------2~--|
Ab|-------------------------------------------------------2~--|
Eb|-------------------------------------------------------0~--|

Chorus:
eb|--00000000--00000000--22222222--00000000--|
Bb|--33333333--00000000--22222222--22222222--|
Gb|--22222222--11111111--22222222--22222222--|
Db|--00000000--22222222--44444444--22222222--| x2
Ab|------------22222222--44444444--00000000--|
Eb|------------00000000--22222222------------|

Verse:
eb|-----------0----------------0----------------0-------------0--------|
Bb|------3------3---3------3-----3---3------0-----0---0-----0---0---0--|
Gb|----2---2------2------2---2-----2------1---1-----1-----1-------1----|
Db|--0-----------------0----------------2---------------2--------------|
Ab|--------------------------------------------------------------------|
Eb|--------------------------------------------------------------------|

eb|-----------0----------------0----------------0-------------0--------|
Bb|------2------2---2------2-----2---2------0-----0---0-----0---0---0--|
Gb|----4---4------4------4---4-----4------6---6-----6-----6-------6----|
Db|--4-----------------4----------------7---------------7--------------|
Ab|--------------------------------------------------------------------|
Eb|--------------------------------------------------------------------|

eb|-----------0----------------0--------0~--|
Bb|------3------3---3------3-----3---3--0~--|
Gb|----2---2------2------2---2-----2----1~--|
Db|--0-----------------0----------------2~--|
Ab|-------------------------------------2~--|
Eb|-------------------------------------0~--|

Chorus:
eb|--00000000--00000000--22222222--00000000--|
Bb|--33333333--00000000--22222222--22222222--|
Gb|--22222222--11111111--22222222--22222222--|
Db|--00000000--22222222--44444444--22222222--|
Ab|------------22222222--44444444--00000000--|
Eb|------------00000000--22222222------------|

eb|--00000000--00000000--22222222--55555555x--|
Bb|--33333333--00000000--22222222--55555555x--|
Gb|--22222222--11111111--22222222--66666666x--|
Db|--00000000--22222222--44444444--77777777x--|
Ab|------------22222222--44444444--77777777x--|
Eb|------------00000000--22222222--55555555x--|

eb|--00000000--00000000--22222222--00000000--|
Bb|--33333333--00000000--22222222--22222222--|
Gb|--22222222--11111111--22222222--22222222--|
Db|--00000000--22222222--44444444--22222222--|
Ab|------------22222222--44444444--00000000--|
Eb|------------00000000--22222222------------|

Outro:
eb|-----------0----------------0----------------0-------------0--------|
Bb|------3------3---3------3-----3---3------0-----0---0-----0---0---0--|
Gb|----2---2------2------2---2-----2------1---1-----1-----1-------1----|
Db|--0-----------------0----------------2---------------2--------------|
Ab|--------------------------------------------------------------------|
Eb|--------------------------------------------------------------------|

eb|-----------0----------------0----------------0-------------0--------|
Bb|------2------2---2------2-----2---2------0-----0---0-----0---0---0--|
Gb|----4---4------4------4---4-----4------6---6-----6-----6-------6----|
Db|--4-----------------4----------------7---------------7--------------|
Ab|--------------------------------------------------------------------|
Eb|--------------------------------------------------------------------|

eb|-----------0----------------0--------0~--|
Bb|------3------3---3------3-----3---3--0~--|
Gb|----2---2------2------2---2-----2----1~--|
Db|--0-----------------0----------------2~--|
Ab|-------------------------------------2~--|
Eb|-------------------------------------0~--|
Suggest correction
Give kudos to tab author, rate the tab!
1 2 3 4 5
comments
print report bad tab
guest
You may want to rate the tab now too:
select rating
Please do not post tabs as comments. Select "correction" instead!