Oops, an error
Loading. Please wait.

This Is Our Town Tab

version 1
version 1

Whole song

6,335 views 1 this week
no commentswrite comment
1 2 3 4 5
please rate
add to favorites
launch autoscroll
font size
0
reset
how to read this tab
guitar tuner
Autoscroll
slow
fast
+/-
esc
set tempo
stop
Help us to improve Ultimate-Guitar.com Take our survey!
×
Contributor
This Is Our Town
We The Kings
(From The Album We The Kings)

Gtr I (E A D G B E) – Piano One
Gtr II (E A D G B E) – Piano Two
Gtr III (E A D G B E) – Acoustic Guitar

(Piano is transposed to guitar)

Chords:
       C#              Eb              Fm              G#
 (x 4 6 6 6 4)   (x 6 8 8 8 6)   (1 3 3 1 1 1)   (4 6 6 5 4 4)

 Gtr I
  E E E E E E E E   E E E E E E E E   E E E E E E E E   E E E E E E E E   
|-----------------|-----------------|-----------------|-----------------|   
|-----------------|-----------------|-----------------|---------2-1-----|   
|-1---1---1---1---|---0---0---0---0-|-1---1---1---1---|---0---3-----3---|   
|---3---3---3---3-|-6---6---6---6---|---3---3---3---3-|-6---6---------6-|   
|-----------------|-----------------|-----------------|-----------------|   
|-----------------|-----------------|-----------------|-----------------|
 Gtr II
  W                 W                 W                 W
|-----------------|-----------------|-----------------|-----------------|   
|-----------------|-----------------|-----------------|-----------------|   
|-6---------------|-8---------------|-----------------|-----------------|   
|-6---------------|-6---------------|-6---------------|-6---------------|   
|-4---------------|-6---------------|-3---------------|-6---------------|  
|-----------------|-----------------|-1---------------|-4---------------|  

  E E E E E E E E   W
|-----------------|-----------------|
|-----------------|-----------------|
|-1---1---1---1---|-1---------------|
|---3---3---3---3-|-----------------|
|-----------------|-----------------|
|-----------------|-----------------|
|                    
| W                 W
|-----------------|-----------------|
|-----------------|-----------------|
|-6---------------|-8---------------|
|-6---------------|-6---------------|
|-4---------------|-6---------------|
|-----------------|-----------------|

 Gtrs II, III
| C#              | Eb              | C#              | Eb              |

 Gtr I
  E E E E E E E E   E E E E E E E E   E E E E E E E E   E E E E E E E E
|-----------------|-----------------|-----------------|-----------------|   
|-----------------|-----------------|-----------------|---------2-1-----|   
|-1---1---1---1---|---0---0---0---0-|-1---1---1---1---|---0---3-----3---|   
|---3---3---3---3-|-6---6---6---6---|---3---3---3---3-|-6---6---------6-|   
|-----------------|-----------------|-----------------|-----------------|   
|-----------------|-----------------|-----------------|-----------------|
|Gtr II
| W                 W                 W                 W               
|-----------------|-----------------|-----------------|-----------------|   
|-----------------|-----------------|-----------------|-----------------|   
|-6---------------|-8---------------|-----------------|-----------------|  
|-6---------------|-6---------------|-6---------------|-6---------------|   
|-4---------------|-6---------------|-3---------------|-6---------------|   
|-----------------|-----------------|-1---------------|-4---------------| 
|Gtr III                                                                    
| C#              | Eb              | Fm              | G#              |

  E E E E E E E E   E E E E E E E E   E E E E E E E E   E E E E E E E E   
|-----------------|-----------------|-----------------|-----------------|   
|-----------------|-----------------|-----------------|---------2-1-----|   
|-1---1---1---1---|---0---0---0---0-|-1---1---1---1---|---0---3-----3---|   
|---3---3---3---3-|-6---6---6---6---|---3---3---3---3-|-6---6---------6-|  
|-----------------|-----------------|-----------------|-----------------|  
|-----------------|-----------------|-----------------|-----------------|
|   
| W                 W                 W                 W                   
|-----------------|-----------------|-----------------|-----------------|   
|-----------------|-----------------|-----------------|-----------------|   
|-6---------------|-8---------------|-----------------|-----------------|   
|-6---------------|-6---------------|-6---------------|-6---------------|   
|-4---------------|-6---------------|-3---------------|-6---------------|  
|-----------------|-----------------|-1---------------|-4---------------| 
|
| C#              | Eb              | Fm              | G#              |

  E E E E E E E E   W                 W
|-----------------|-----------------|-----------------|
|-----------------|-----------------|-----------------|
|-1---1---1---1---|-1---------------|-----------------|
|---3---3---3---3-|-----------------|-----------------|
|-----------------|-----------------|-----------------|
|-----------------|-----------------|-----------------|
|                    
| W                 W                 W
|-----------------|-----------------|-----------------|
|-----------------|-----------------|-----------------|
|-6---------------|-8---------------|-----------------|
|-6---------------|-6---------------|-----------------|
|-4---------------|-6---------------|-----------------|
|-----------------|-----------------|-----------------|
|
| C#              | Eb              |                 |

 Gtr III
| C#              | Eb              | Fm              | G#              | x3

 Gtr II
  W                 W                 W                 W                      
|-----------------|-----------------|-----------------|-----------------|   
|-----------------|-----------------|-----------------|-----------------|   
|-6---------------|-8---------------|-----------------|-----------------|   
|-6---------------|-6---------------|-6---------------|-6---------------|   
|-4---------------|-6---------------|-3---------------|-6---------------| 
|-----------------|-----------------|-1---------------|-4---------------| 
|
|Gtr III
| E E E E E E E E   E E E E E E E E   E E E E E E E E   E E E E E E E E   
|-----------------|-----------------|-----------------|-----------------|  
|-----------------|-----------------|-----------------|---------2-1-----|   
|-1---1---1---1---|---0---0---0---0-|-1---1---1---1---|---0---3-----3---|   
|---3---3---3---3-|-6---6---6---6---|---3---3---3---3-|-6---6---------6-|  
|-----------------|-----------------|-----------------|-----------------|   
|-----------------|-----------------|-----------------|-----------------| 

  W                 W               
|-----------------|-----------------||
|-----------------|-----------------||
|-6---------------|-8---------------||
|-6---------------|-6---------------||
|-4---------------|-6---------------||
|-----------------|-----------------||
| E E E E E E E E   W                
|-----------------|-----------------||
|-----------------|-----------------||     
|-1---1---1---1---|-1---------------||     
|---3---3---3---3-|-----------------||     
|-----------------|-----------------||    
|-----------------|-----------------|| 
Thats the end! I will do the sting ensamble later.
NOTE: The chorus and intro riffs are played x2

P.S.
I tried to do a more full tab this time,
if you like them better this way (or not) please comment!
comments
We did not receive enough feedback on this tab! Please rate:
print report bad tab
1 2 3 4 5
I want to post or [tab]
guest
You may want to rate the tab now too:
select rating
Please do not post tabs as comments. Select "correction" instead!