Oops, an error
Loading. Please wait.

Well Be A Dream Bass Tab

version 1
version 1

Whole song

Interactive

2,393 views 7 this week
no commentswrite comment
1 2 3 4 5
please rate
add to favorites
launch autoscroll
font size
0
reset
guitar tuner
Tab Pro tools
  • play this tab
  • loop segment
  • change instrument
  • show fretboard
  • metronome
×
Best way to learn
"Well Be A Dream"
Autoscroll
slow
fast
+/-
esc
set tempo
stop
Contributor
------------------------------------------------------------------------------
                                We'll Be A Dream - We The Kings
------------------------------------------------------------------------------

Tabbed By: n00bzilla99 
Tuning: Standard (EADG)

INTRO (0:00)
G|--------REST--------|
D|--------REST--------|
A|--------REST--------|
E|--------REST--------|

VERSE 1 (0:20)
G|--------REST--------|
D|--------REST--------|
A|--------REST--------|
E|--------REST--------|

CHORUS (0:44)
G|------------------------------------------------------------------|
D|------------------------------------------------------------------|
A|-5-5-5-5-5-5-5-5-----------------5-5-5-5-5-5-5-5------------------|
E|-----------------5-5-5-5-5-5-5-5-----------------5-5-5-5-5-5-5-5--|

G|------------------------------------------------------------------|
D|------------------------------------------------------------------|
A|-5-5-5-5-------------------------5-5-5-5-5-5-5-5------------------|
E|---------0-0-0-0-1-1-1-1-2-2-2-2-----------------0-0-0-0-0~-------|

VERSE 2 (1:20)
G|---------------------------------------|
D|---------------------------------------|
A|-4--------5--------4--------2----------|  x3
E|---5~-------5~-------5~-------4~-------|

CHORUS (1:44)
G|------------------------------------------------------------------|
D|------------------------------------------------------------------|
A|-5-5-5-5-5-5-5-5-----------------5-5-5-5-5-5-5-5------------------|
E|-----------------5-5-5-5-5-5-5-5-----------------5-5-5-5-5-5-5-5--|

G|------------------------------------------------------------------|
D|------------------------------------------------------------------|
A|-5-5-5-5-------------------------5-5-5-5-5-5-5-5------------------|
E|---------0-0-0-0-1-1-1-1-2-2-2-2-----------------0-0-0-0-0-0-0-0--|

BRIDGE (2:09) [Faster Paced] 
G|-------------------------------------|
D|-------------------------------------|
A|-------------------------------------|  x2
E|-222222222222-4444-5555555555555555--|

G|------------------------------------------------------------------|
D|------------------------------------------------------------------|
A|-----------------------------5555---------------------------------|
E|-2222222222224444555555555555----00000000000000000000000000000000-| 

CHORUS 3 (2:32)
G|------------------------------------------------------------------|
D|------------------------------------------------------------------|
A|-5-5-5-5-5-5-5-5-----------------5-5-5-5-5-5-5-5------------------|
E|-----------------5-5-5-5-5-5-5-5-----------------5-5-5-5-5-5-5-5--|

G|------------------------------------------------------------------|
D|------------------------------------------------------------------|
A|-5-5-----------------------------5-5-5-5-5-5-5-5------------------|
E|---------0-0-----1-1-1-1-2-2-2-2-----------------0-0-0-0-0-0-0-0--|

G|------------------------------------------------------------------|
D|------------------------------------------------------------------|
A|-5-5-5-5-5-5-5-5-----------------5-5-5-5-5-5-5-5------------------|
E|-----------------5-5-5-5-5-5-5-5-----------------5-5-5-5-5-5-5-5--|

G|------------------------------------------------------------------|
D|------------------------------------------------------------------|
A|-5-5-5-5-------------------------5-5-5-5-5-5-5-5------------------|
E|---------0-0-0-0-1-1-1-1-2-2-2-2-----------------0-0-0-0-0~-------|

OUTRO (3:21)
G|---------------------------------------|
D|---------------------------------------|
A|-4--------5--------4--------2----------|  x2
E|---5~-------5~-------5~-------4~-------|

END (3:45)
G|--------|
D|--------|
A|--------|
E|---5~---|

| /  slide up
| \  slide down
| h  hammer-on
| p  pull-off
| ~  vibrato
| +  harmonic
| x  Mute note
==============================================================================

Should be 100% correct, the bass is really faded in the background.  Please rate! :D
comments
We did not receive enough feedback on this tab! Please rate:
print report bad tab
1 2 3 4 5
I want to post or [tab]
guest
You may want to rate the tab now too:
select rating
Please do not post tabs as comments. Select "correction" instead!