Oops, an error
Loading. Please wait.

Well Be A Dream Tab

version 4
version 4

Whole song

Interactive

1,938 views 1 this week
no commentswrite comment
1 2 3 4 5
2 more votes to show rating
add to favorites
launch autoscroll
font size
0
reset
how to read this tab
guitar tuner
Autoscroll
slow
fast
+/-
esc
set tempo
stop
Help us to improve Ultimate-Guitar.com Take our survey!
×
Capo
2nd fret
============================================================================
Song: We'll Be A Dream
By: We The Kings           
============================================================================
Capo 2

     G     Cadd9   Gsus2     D
e|---3---|---3---|---3---|---2---|
B|---3---|---3---|---3---|---3---|
G|---0---|---0---|---2---|---3---|
D|---0---|---2---|---0---|---0---|
A|---2---|---3---|---0---|---x---|
E|---3---|---x---|---2---|---x---|


INTRO:
e|------------------------------------------------------------------|
B|------3-------3-------3-------3-------3-------3-------3-------3---|
G|--4-------4-------4-------4-------5-------5-------5-------5-------|
D|----5---5---5---5---5---5---5---5---5---5---5---5---5---5---5---5-|
A|------------------------------------------------------------------|
E|------------------------------------------------------------------|

e|------------------------------------------------------------------|
B|------3-------3-------3-------3-------3-------3-------3-------3---|
G|--4-------4-------4-------4-------2-------2-------2-------2-------|
D|----5---5---5---5---5---5---5---5---4---4---4---4---4---4---4---4-|
A|------------------------------------------------------------------|
E|------------------------------------------------------------------|

VERSE:
G
Do you remember the nights
Cadd9
We'd stay up just laughing
G
Smiling for hours 
Gsus2
At anything 
G
Remember the nights
Cadd9           G       
We drove around crazy
Gsus2
In love 

Chrous:
         Cadd9  Gsus2  G
When the lights   go   out 
         Cadd9  Gsus2  G
We'll be safe    and   sound 
           Cadd9          Gsus2
We'll take control of the world
          G                   Cadd9
Like it's all we have to hold on to 
          D
And we'll be a dream 


VERSE:
G
Do you remember the nights 
Cadd9
We made our way dreaming 
G
Hoping of being 
Gsus2
Someone big 
G
We were so young then 
Cadd9       G
We were too crazy 
Gsus2
In love 

Chrous:
         Cadd9  Gsus2  G
When the lights   go   out 
         Cadd9  Gsus2  G
We'll be safe    and   sound 
           Cadd9          Gsus2
We'll take control of the world
          G                   Cadd9
Like it's all we have to hold on to 
          D
And we'll be a dream 



Cadd9   Gsus2   G
Whoa-oh-oh-oh   Whoa
Cadd9   Gsus2   G
Whoa-oh-oh-oh   Whoa
Cadd9   Gsus2   G
Whoa-oh-oh-oh   Whoa
D
Whoa


Chrous:
         Cadd9  Gsus2  G
When the lights   go   out 
         Cadd9  Gsus2  G
We'll be safe    and   sound 
           Cadd9          Gsus2
We'll take control of the world
          G                   Cadd9
Like it's all we have to hold on to 
          D
And we'll be a dream 

         Cadd9  Gsus2  G
When the lights   go   out 
         Cadd9  Gsus2  G
We'll be safe    and   sound 
           Cadd9          Gsus2
We'll take control of the world
          G                   Cadd9
Like it's all we have to hold on to 
          D
And we'll be a dream 



Suggest correction
Give kudos to tab author, rate the tab!
1 2 3 4 5
comments
print report bad tab
guest
You may want to rate the tab now too:
select rating
Wanna post a correction for this tab? Suggest correction