Oops, an error
Loading. Please wait.

All Kinds Of Love Tab

192 views 1 this week
no commentswrite comment
1 2 3 4 5
3 more votes to show rating
add to favorites
launch autoscroll
font size
0
reset
how to read this tab
guitar tuner
Autoscroll
slow
fast
+/-
esc
set tempo
stop
Help us to improve Ultimate-Guitar.com Take our survey!
×
this is dexter...the guy who wrote this song. it's in D

The little riff is:

e-2-2---2h3p2---------3-3---3/5-5/7-----|
b-3-----------3-------0-0---0---0-------|
g-2-------------2-----0-0---0---0-------|      x2
d-0---0-----------0---0-----0---0-------|
a---------------------x-----x---x-------|
e---------------------3---3-3/5-5/7-7/3-|


Then:

e--------------------------------------------2-|
b--------------------7-----------------------3-|
g------------------7---7---------------------2-|
d------7-----5---7-------7-----7---0---0---0---|
a----7-----5---5-------------7-----------------|
e--5-----3-----------------5-----3---2---0-----|

if you can't figure out the rest let me know, but I'm figuring you just want the main riff.

book.dexter@gmail.com
Suggest correction
Give kudos to tab author, rate the tab!
1 2 3 4 5
comments
print report bad tab
guest
You may want to rate the tab now too:
select rating
Wanna post a correction for this tab? Suggest correction