Oops, an error
Loading. Please wait.

Moving Clocks Run Slow Bass Tab

1,928 views 1 this week
no commentswrite comment
1 2 3 4 5
x 5
add to favorites
launch autoscroll
font size
0
reset
guitar tuner
Autoscroll
slow
fast
+/-
esc
set tempo
stop
Help us to improve Ultimate-Guitar.com Take our survey!
×
Author
Difficulty
intermediate
(0:46)
G|----------------|----------------|----------------|----------------|
D|----------------|----------------|----------------|----------------|
A|1---1-1-1---1---|3---3-3-3---3-3-|5---5-5-5---5-5-|5---5-5-5-5-5-5-|
E|----------------|----------------|----------------|----------------|

G|----------------|----------------|----------------|----------------|
D|----------------|----------------|----------------|----------------|
A|1---1-1-1---1-1-|3---3---3-3-3-3-|5---5---5-5-5---|5---5-5-5---5-5-|
E|----------------|----------------|----------------|----------------|

G|----------------|----------------|----------------|----------------|
D|----------------|----------------|----------------|----------------|
A|1---1-1-1---1---|3---3-3-3---3-3-|5---5-5-5---5---|5-5-5---5-5-5-5-|
E|----------------|----------------|----------------|----------------|

G|----------------|----------------|----------------|----------------|
D|----------------|----------------|--------7-7-----|--------7-8-7\\\|
A|1---1---1-1-1-1-|3---3---3---3-3-|5---5-5-----5---|5---5-5---------|
E|----------------|----------------|----------------|----------------|


(1:21)
G|----------------|----------------|----------------|----------------|
D|----------------|----------------|----------------|----------------|
A|8~--------------|----------------|----------------|----------------|
E|----------------|----------------|6~--------------|----------------|

G|----------------|----------------|----------------|----------------|
D|----------------|----------------|----------------|----------------|
A|8-8-8-8-8-8-8-8-|8-8-8-8-8-8-8-8-|----------------|----------------|
E|----------------|----------------|6-6-6-6-6-6-6-6-|6-6-6-6-6-6-6-6-|


(1:32)
G|----------------|----------------|----------------|----------------|
D|----7-8-108-7---|----7-8-108-7---|----------------|----------------|
A|8-8-------------|8---------------|----5-6-8-6-5---|----5-6-8-6-5---|
E|----------------|----------------|6---------------|6---------------|


(1:56)
G|----------------|----------------|----------------|----------------|
D|----------------|----------------|----------------|----------------|
A|1-1-1-1-1-1-1-1-|3-3-3-3-3-3-3-3-|5-5-5-5-5-5-5-5-|5-5-5-5-5-5-5-5-|
E|----------------|----------------|----------------|----------------|

G|----------------|----------------|----------------|----------------|
D|----------------|----------------|----------------|----------------|
A|1-1-1-1-1-1-1-1-|3-3-3-3-3-3-3-3-|5~--------------|----------------|
E|----------------|----------------|----------------|----------------|


(2:08)
G|----------------|----------------|----------------|----------------|
D|----------------|----------------|----------------|----------------|
A|1---1-1-1---1---|3---3-3-3---3-3-|5---5-5-5---5-5-|5---5-5-5-5-5-5-|
E|----------------|----------------|----------------|----------------|

G|----------------|----------------|----------------|----------------|
D|----------------|----------------|----------------|----------------|
A|1---1-1-1---1-1-|3---3---3-3-3-3-|5---5---5-5-5---|5---5-5-5---5-5-|
E|----------------|----------------|----------------|----------------|

G|----------------|----------------|----------------|----------------|
D|----------------|----------------|----------------|----------------|
A|1---1-1-1---1---|3---3-3-3---3-3-|5---5-5-5---5---|5-5-5---5-5-5-5-|
E|----------------|----------------|----------------|----------------|

G|----------------|----------------|----------------|----------------|
D|----------------|----------------|--------7-7-----|--------7-5-7\\\|
A|1---1---1-1-1-1-|3---3---3---3-3-|5---5-5-----5---|5---5-5---------|
E|----------------|----------------|----------------|----------------|


(2:42)
G|----------------|----------------|----------------|----------------|
D|----------------|----------------|----------------|----------------|
A|8~--------------|----------------|----------------|----------------|
E|----------------|----------------|6~--------------|----------------|

G|----------------|----------------|----------------|----------------|
D|----------------|----------------|----------------|----------------|
A|8-8-8-8-8-8-8-8-|8-8-8-8-8-8-8-8-|----------------|----------------|
E|----------------|----------------|6-6-6-6-6-6-6-6-|6-6-6-6-6-6-6-6-|


(2:54)
G|----------------|----------------|----------------|----------------|
D|----7-8-108-7---|----7-8-108-7---|----------------|----------------|
A|8-8-------------|8---------------|----5-6-8-6-5---|----5-6-8-6-5---|
E|----------------|----------------|6---------------|6---------------|


(3:30) - Not sure if this is the bass or rhythm guitar...
G|----------------|----------------|----------------|----------------|
D|Tremolo-Picking-|----------------|----------------|----------------|
A|###1###/###8###\|###3###/###10##\|###5###/###12##\|###5###/###12##\|
E|----------------|----------------|----------------|----------------|

G|----------------|----------------|----------------|----------------|
D|Tremolo-Picking-|----------------|----------------|----------------|
A|###1###/###8###\|###3###/###10##\|12-12-12-12---12|12-12-12-12\\\\\|
E|----------------|----------------|----------------|----------------|


(3:55)
G|----------------|----------------|----------------|----------------|
D|--------8--7----|----------------|----------------|----------------|
A|8--8--8-------8-|--------7--8--10|--------8-----8-|--------------7-|
E|----------------|8--8--8---------|6--6--6---------|6--6--6-6--8----|

G|----------------|----------------|----------------|----------------|
D|----------------|----------------|----------------|----------------|
A|----------------|----------------|----------------|----------------|
E|6--6--6-6--6--6-|6--6--6-6--6--6-|6--6--6-6--6--6-|6--6--6-6--6--6-|
Suggest correction
comments
print report bad tab
guest
You may want to rate the tab now too:
select rating
Wanna post a correction for this tab? Suggest correction