Oops, an error
Loading. Please wait.

Ships With Holes Will Sink Bass Tab

1,071 views 1 this week
no commentswrite comment
1 2 3 4 5
3 more votes to show rating
add to favorites
launch autoscroll
font size
0
reset
guitar tuner
Autoscroll
slow
fast
+/-
esc
set tempo
stop
Help us to improve Ultimate-Guitar.com Take our survey!
×
Author
Difficulty
(0:21)x2
G|--------------------------------|--------------------------------|
D|--------------------------------|--------------------------------|
A|11~--------------9~-------------|7~------------------------------|
E|--------------------------------|--------------------------------|


(0:32)x2
G|--------------------------------|--------------------------------|
D|--------------------------------|--------------------------------|
A|--------------------------------|--------------------------------|
E|4-4-4-4-4-4-4-4-2-2-2-2-2-2-2-2-|0-0-0-0-0-0-0-0-0-0-0-0-0-0-0-0-|


(0:43)x2
G|--------------------------------|--------------------------------|
D|--------------------------------|--------------------------------|
A|--------------------------------|4---4---4---4---4---4---4-4-4-4-|
E|0~------------------------------|--------------------------------|

G|--------------------------------|--------------------------------|
D|--------------------------------|--------------------------------|
A|6---6---6---6---6---6---6-6-6-6-|2---2---2---2---4---4---4---2---|
E|--------------------------------|--------------------------------|


(1:04)x2
G|--------------------------------|--------------------------------|
D|--------------------------------|--------------------------------|
A|11~--------------9~-------------|7~------------------------------|
E|--------------------------------|--------------------------------|


(1:15)x2
G|--------------------------------|--------------------------------|
D|--------------------------------|--------------------------------|
A|--------------------------------|--------------------------------|
E|4-4-4-4-4-4-4-4-2-2-2-2-2-2-2-2-|0-0-0-0-0-0-0-0-0-0-0-0-0-0-0-0-|


(1:41)x1
G|--------------------------------|--------------------------------|
D|--------------------------------|--------------------------------|
A|--------------------------------|--------------------------------|
E|7-7---6-6---9-9---11-11~--------|7-7---6-6---9-9---7-7~----------|


(1:49)x3
G|--------------------------------|--------------------------------|
D|--------------------------------|--------------------------------|
A|--------------------------------|--------------------------------|
E|7-7-7-7-7-7-7-7-7-7-7-7-7-7-7-7-|7-7-7-7-7-7-7-7-7-7-7-7-7-7-7-7-|

G|--------------------------------|--------------------------------|
D|--------------------------------|--------------------------------|
A|--------------------------------|--------------------------------|
E|2-2-2-2-2-2-2-2-2-2-2-2-2-2-2-2-|0-0-0-0-0-0-0-0-0-0-0-0-0-0-0-0-|


(2:24)x3
G|--------------------------------|--------------------------------|
D|--------------------------------|--------------------------------|
A|11~--------------9~-------------|7~------------------------------|
E|--------------------------------|--------------------------------|


(2:41)x8
G|----13-------------11-----------|----9---------------9-----------||----|
D|--------13--------------11------|--------9---------------9-------||----|
A|11----------11--9-----------9---|7-----------7---7-----------7---||7---|
E|--------------------------------|--------------------------------||----|
Suggest correction
Give kudos to tab author, rate the tab!
1 2 3 4 5
comments
print report bad tab
guest
You may want to rate the tab now too:
select rating
Wanna post a correction for this tab? Suggest correction