Oops, an error
Loading. Please wait.

Sore Thumb Bass Tab

version 1
version 1

Whole song

1,909 views 3 this week
no commentswrite comment
1 2 3 4 5
1 last vote to show rating
add to favorites
launch autoscroll
font size
0
reset
guitar tuner
×
Best way to learn
"Sore Thumb"
Autoscroll
slow
fast
+/-
esc
set tempo
stop
Author
Difficulty
  follow
novice
A great song by a great band. It is played in the Key of B-minor
Intro
G|--7--9-|--11--7--0---7--9--|
D|--9--7-|--0---0--9---9--7--|
A|-------|-------------------|
E|-------|-------------------|

Do just this for the rest of the song. 
|--11--7--0---7--9--|
|--0---0--9---9--7--|
|-------------------|
|-------------------|
Suggest correction
Give kudos to tab author, rate the tab!
1 2 3 4 5
comments
print report bad tab
guest
You may want to rate the tab now too:
select rating
Wanna post a correction for this tab? Suggest correction