Oops, an error
Loading. Please wait.

Nothing To Lose tab

by WEAK13
86 views 1 this week
no commentswrite comment
1 2 3 4 5
2 more votes to show rating
add to favorites
×
Save as Personal and add changes to this tab that will be seen only by you. Learn more ›
×
You can save this tab as Personal to edit and correct it or add notes. All changes will be seen only by you. Learn more »
launch autoscroll
font size
0
reset
how to read this tab
guitar tuner
edit
Autoscroll
slow
fast
+/-
esc
set tempo
stop
Author
-------------------------------------------------------------------------------
                                                  NOTHING TO LOSE - Weak13
-------------------------------------------------------------------------------
                                                                           
From the Album "Live Ammo"
Guitar Tab transcribed by ERFmusic

Tuning: B,F#,B,E,B,B (Slightly below concert pitch)


Intro/verse chords:
B |-------------------------------0---------------------------|
B |-7--------------3-------------(0)--------------------------|
E |-7--------------3--------------4---------------------------|
B |-7--------------3--------------5---------------------------|
F#|-5--------------1--------------5---------------------------|
B |-------------------------------5---------------------------|
                                                                

2nd verse Chord change:
B |-2-----------------------------0---------------------------|
B |-3--------------3--------------0---------------------------|
E |-2--------------3--------------4---------------------------|
B |-0--------------3--------------5---------------------------|
F#|-0--------------1--------------5---------------------------|
B |-0-----------------------------5---------------------------|
 
B |-2--------------3--------------3---------------------------|
B |-3--------------3--------------3---------------------------|
E |-2--------------3--------------0---------------------------|
B |-0--------------3--------------x---------------------------|
F#|-0--------------1--------------5---------------------------|
B |-0-----------------------------5---------------------------|


Outro chords
B |-2--------------3--------------3---------------------------|
B |-3--------------3--------------3---------------------------|
E |-2--------------3--------------0---------------------------|
B |-0--------------3--------------0---------------------------|
F#|-0--------------1--------------5---------------------------|
B |-0-----------------------------5---------------------------|


"Nothing To Lose" lyrics on
http://www.lyricsmode.com/lyrics/w/weak13/nothing_to_lose.html

"LIVE AMMO" album on 
http://weak13.bandcamp.com

WEAK13 Nothing To Lose music video
www.youtube.com/watch?v=27CsNec_8tQ
Suggest correction
Creating personal tab
Creating personal tab
You can edit any tab online and save it as your Personal.

You can edit, replace or remove any tab part or add personal notes – all changes will be seen only by you.

Personal tabs can be accessed anytime from any device, even offline.
Learn more »
Give kudos to tab author, rate the tab!
1 2 3 4 5
comments
print report bad tab
guest
You may want to rate the tab now too:
select rating
Wanna post a correction for this tab? Suggest correction