Oops, an error
Loading. Please wait.

Terrorist Youth Tab

83 views 1 this week
3 commentsread comments
1 2 3 4 5
please rate
add to favorites
launch autoscroll
font size
0
reset
how to read this tab
guitar tuner
Autoscroll
slow
fast
+/-
esc
set tempo
stop
Help us to improve Ultimate-Guitar.com Take our survey!
×
Author
Difficulty
Band: Weapons
Song: Terrorist Youth
Album: Weapons

the albums amazing but i love this song. It may not be 100%, probably coz its one of my 
tabs, but it seems extremely accurate to me. Enjoy.


Intro
e|-----------------------|-----------------------|
b|-----------------------|-----------------------|
g|---8-7-----8-7--7-8-7--|---8-7-----8-7--7-8-7--|
d|-5-----5-5-------------|-5-----5-5-------------|
a|-----------------------|-----------------------|
E|-----------------------|-----------------------|

e|-----------------------|--------------------------|-----------------|
b|-----------------------|-----8-----8-----8-----8--|-----8-----8-8b--|
g|---8-7-----8-7--7-8-7--|--------------------------|-----------------|
d|-6-----6-6-------------|-5-5---5-5---5-5---5-5----|-5-5---5-5-------|
a|-----------------------|--------------------------|-----------------|
E|-----------------------|--------------------------|-----------------|
                          >         1st time       < >   2nd time    <
Verse
e|-----------------------------------------------|
b|-----------------------------------------------|
g|-----------------------------------------------|
d|-8--8--8--8--10-10-10-10-6--6--6--6--6--6-/-8--|
a|-8--8--8--8--10-10-10-10-6--6--6--6--6--6-/-8--|
E|-3--3--3--3--8--8--8--8--4--4--4--4--4--4-/-6--|

e|-----------------------------------------------------|
b|-----------------------------------------------------|
g|-----------------------------------------------------|
d|-8--8--8--8--10-10-10-10-6--6--6--6--12--12--12--12--|
a|-8--8--8--8--10-10-10-10-6--6--6--6--12--12--12--12--|
E|-3--3--3--3--8--8--8--8--4--4--4--4--10--10--10--10--|

this is faster
e|-------------------------------------------------|
b|-------------------------------------------------|
g|-------------------------------------------------|
d|-8--8--8--8--10-10-10-10-6--6--6--6--8--8--8--8--|
a|-8--8--8--8--10-10-10-10-6--6--6--6--8--8--8--8--|
E|-3--3--3--3--8--8--8--8--4--4--4--4--6--6--6--6--|

e|-----------------------------------------------------|
b|-----------------------------------------------------|
g|-----------------------------------------------------|
d|-8--8--8--8--10-10-10-10-12--12--12--12--8--8--8--8--|
a|-8--8--8--8--10-10-10-10-12--12--12--12--8--8--8--8--|
E|-3--3--3--3--8--8--8--8--10--10--10--10--6--6--6--6--|

Verse2
but once you get to the
end of the 2nd bar you repeat and then you do this:

e|-----------------------|         |---4-------------------|
b|---9-8-----9-8--8-9-8--|         |-5---5-3--3-5-3--------|
g|-5-----5-5-------------| x3 then:|----------------5-3-1--|
d|-----------------------|         |-----------------------|
a|-----------------------|         |-----------------------|
E|-----------------------|         |-----------------------|

Chorus
verse2

Solo
e|---------------------------------------------------------------------|
b|-12-12-12-12-----15--15----13----13--17----8----8---8-------5-----3--|
g|--------------17(19)----17----15(17)----15---10(12)---10--7(9)--5(7)-|
d|-----------------UB--------------UB-------------UB---------UB----UB--|
a|---------------------------------------------------------------------|
E|---------------------------------------------------------------------|

e|--------|                         |---------------------------------|
b|----15--|                         |-15h17p15-15h18p15-15h18p17p15---|
g|-17(19)-|the next bit is a lot of |---------------------------------|
d|----UB--|hammer ons and pull offs |---------------------------------|
a|--------|around these notes       |---------------------------------|
E|--------|                         |---------------------------------|

Verse2

ends with

d|-7-|
a|-7-|
E|-5-|

thats it, any coments email me: bouncingbob59@hotmail.co.uk
Suggest correction
What's this?
You can suggest a correction to this tab. Community and Mods will review your correction and vote to approve or reject it.
comments
We did not receive enough feedback on this tab! Please rate:
print report bad tab
1 2 3 4 5
3 comments total.
0 reply
bouncingbob59 108 wrote on October 29 2006, 07:18 am

sorry i got the verse wrong, its:

D|-5- -8-
A|-5- not: -8-
E|-3- -3-

sorry about that!

0 reply
_Dilemma_ 64 wrote on December 16 2006, 03:47 pm

nice tab :)
apart from i think the second part of verse 2 is played one string up rom what you put. but still 5 stars coz you got the frets right.

0 reply
bouncingbob59 108 wrote on July 17 2008, 04:29 pm

yeh another typo!!!

guest
You may want to rate the tab now too:
select rating
Please do not post tabs as comments. Select "correction" instead!