Oops, an error
Loading. Please wait.

Armed To The Teeth Tab

782 views 3 this week
1 commentread comment
1 2 3 4 5
please rate
add to favorites
launch autoscroll
font size
0
reset
how to read this tab
guitar tuner
Autoscroll
slow
fast
+/-
esc
set tempo
stop
Help us to improve Ultimate-Guitar.com Take our survey!
×
Author
Difficulty
intermediate
-----------------------------------------------------------------------------
                         ARMED TO THE TEETH - Weatherbox
-----------------------------------------------------------------------------
Tabbed by: mka12992
E-mail: mka12992@aol.com

I'm not the best at tabbing, but I can promise this tab is at least 99% correct.

Tuning: DADGAD

Intro- 

Guitar 1 and 2:
d|--------------------|--------------------|---------|----------|----------|----------|
A|--------------------|--------------------|---------|----------|----------|----------|
G|-----9/11-----------|-----9/11-----------|-----9---|-----11---|-----14---|-----14---|
D|-9-x-x----0-7-7-7-0-|-9-x-x----0-7-7-7-0-|-5-x-x-0-|-5-x--x-0-|-5-x--x-0-|-5-x--x-0-|
A|-9-x-7/-9-0-7-7-7-0-|-9-x-7/-9-0-7-7-7-0-|-5-x-7-0-|-5-x--9-0-|-5-x-12-0-|-5-x-12-0-|
D|-9-x------0-7-7-7-0-|-9-x------0-7-7-7-0-|-5-x---0-|-5-x----0-|-5-x----0-|-5-x----0-|

d|--------------------|--------------------|---------|----------|----------|-----------|
A|--------------------|--------------------|---------|----------|----------|-----------|
G|-----9/11-----------|-----9/11-----------|-----9---|-----11---|-----14---|-----------|
D|-9-x-x----0-7-7-7-0-|-9-x-x----0-7-7-7-0-|-5-x-x-0-|-5-x--x-0-|-5-x--x-0-|-5-x-x-x-x-|
A|-9-x-7/-9-0-7-7-7-0-|-9-x-7/-9-0-7-7-7-0-|-5-x-7-0-|-5-x--9-0-|-5-x-12-0-|-5-x-x-x-x-|
D|-9-x------0-7-7-7-0-|-9-x------0-7-7-7-0-|-5-x---0-|-5-x----0-|-5-x----0-|-5-x-x-x-x-|

Verse-

Guitar 1:
d|------------|-------------------|------------|-------------------|
A|------------|-------------------|------------|-------------------|
G|------------|-------------------|------------|-------------------|
D|-9\---------|-------------------|-9\---------|-------------------|
A|-9\---------|-------------------|-9\---------|-------------------|
D|-9\---------|-------------------|-9\---------|-------------------|

d|-------------|----------------|----------------|----------------|
A|-------------|----------------|----------------|----------------|
G|-------9-9-9-|-------14-14-14-|-------11-11-11-|-------11-11-11-|                          
D|-5-5-5-x-x-x-|-5-5-5--x--x--x-|-5-5-5--x--x--x-|-5-5-5--x--x--x-|
A|-5-5-5-7-7-7-|-5-5-5-12-12-12-|-5-5-5--9--9--9-|-5-5-5--9--9--9-|
D|-5-5-5-------|-5-5-5----------|-5-5-5----------|-5-5-5----------|

Guitar 2:
d|------------|-------------------|------------|-------------------|
A|------------|-------------------|------------|-------------------|
G|------------|-------------------|------------|-------------------|
D|---x--------|-------------------|---x--------|-------------------|
A|---x-7/9/12-|-12-12-12-12-12-12-|---x-7/9/12-|h14-14-14-14-14-14-|
D|---x--------|-------------------|---x--------|-------------------|

d|----------|----------|----------|----------|
A|----------|----------|----------|----------|
G|----------|----------|----------|----------|                          
D|-5-5-5----|-5-5-5----|-5-5-5----|-5-5-5----|
A|-5-5-5----|-5-5-5----|-5-5-5----|-5-5-5----|
D|-5-5-5----|-5-5-5----|-5-5-5----|-5-5-5----|

Chorus-

Guitar 1:
d|---------|---------------------|---------|---------------------|
A|---------|---------------------|---------|---------------------|
G|---------|---------------------|---------|---------------------|
D|-4-4-4-5-|-7-7-7-7-------------|-4-4-4-5-|-7-7-7-7-7-7-7-7-7-7-|
A|-4-4-4-5-|---------7-7-7-7-9-9-|-4-4-4-5-|---------------------|
D|-4-4-4-5-|---------------------|-4-4-4-5-|---------------------|

Guitar 2:
d|---------|-7-7-7-7-7-7-7-7-7-7-|---------|-12-12-12-12-12-12-12-12-12-12-|
A|---------|-x-x-x-x-x-x-x-x-x-x-|---------|--x--x--x--x--x--x--x--x--x--x-|
G|---------|-x-x-x-x-x-x-x-x-x-x-|---------|--x--x--x--x--x--x--x--x--x--x-|
D|-4-4-4-5-|-7-7-7-7-7-7-7-7-7-7-|-4-4-4-5-|-12-12-12-12-12-12-12-12-12-12-|
A|-4-4-4-5-|---------------------|-4-4-4-5-|-------------------------------|
D|-4-4-4-5-|---------------------|-4-4-4-5-|-------------------------------|

Post-Chorus 1-

Guitar 1 only (Figure out strumming yourself):
d|-----------------|-----------------|-----------------|
A|-----------------|-----------------|-----------------|
G|-----------------|-----------------|-----------------|
D|-0-0-0-0-0-0-0-0-|-7-7-7-7-7-7-7-7-|-7-7-7-7-7-7-7-7-|
A|-0-0-0-0-0-0-0-0-|-5-5-5-5-5-5-5-5-|-5-5-5-5-5-5-5-5-|
D|-0-0-0-0-0-0-0-0-|-5-5-5-5-5-5-5-5-|-4-4-4-4-4-4-4-4-|

[REPEAT CHORUS]

Post-Chorus 2-

(Again, figure out strumming yourself)

Guitar 1:
d|-----------------|-----------------|-----------------|---------------------|
A|-----------------|-----------------|-----------------|---------------------|
G|-----------------|-----------------|-----------------|---------9/11-11\9-9-|
D|-0-0-0-0-0-0-0-0-|-5-5-5-5-5-5-5-5-|-7-7-7-7-7-7-7-7-|-9-9-9-9-x-----x---x-|
A|-0-0-0-0-0-0-0-0-|-5-5-5-5-5-5-5-5-|-7-7-7-7-7-7-7-7-|-9-9-9-9-7/-9--9\7-7-|
D|-0-0-0-0-0-0-0-0-|-5-5-5-5-5-5-5-5-|-7-7-7-7-7-7-7-7-|-9-9-9-9-------------|

Guitar 2:
d|-----------------|-----------------|-----------------|-----------------|
A|-----------------|-----------------|-----------------|-----------------|
G|-----------------|-----------------|-----------------|-----------------|
D|-0-0-0-0-0-0-0-0-|-5-5-5-5-5-5-5-5-|-7-7-7-7-7-7-7-7-|-9-9-9-9-9-9-9-9-|
A|-0-0-0-0-0-0-0-0-|-5-5-5-5-5-5-5-5-|-7-7-7-7-7-7-7-7-|-9-9-9-9-9-9-9-9-|
D|-0-0-0-0-0-0-0-0-|-5-5-5-5-5-5-5-5-|-7-7-7-7-7-7-7-7-|-9-9-9-9-9-9-9-9-|

Bridge part 1-

Guitar 1:
d|------------------------|------------------------|
A|------------------------|------------------------|
G|-------7p0-9------------|-------7p0-9------------|
D|-7/9p0------7p0-4p0-2p0-|-7/9p0------7p0-4p0-2p0-|
A|------------------------|------------------------|
D|------------------------|------------------------|

d|-------------------------|-------------------------|
A|-------------------------|-------------------------|
G|-------------------------|-------------------------|
D|-0-4p0-2p0-5-5p0-4p0-2p0-|-0-4p0-2p0-5-5p0-4p0-2p0-|
A|-------------------------|-------------------------|
D|-------------------------|-------------------------|

Guitar 2:
d|-------------------------|-------------------------|
A|-------------------9p0---|-------------------9p0---|
G|-------9p0-0-----------0-|-------9p0-0-----------0-|
D|-7/9p0-------7/9p0-------|-7/9p0-------7/9p0-------|
A|-------------------------|-------------------------|
D|-------------------------|-------------------------|

d|--------------------9p0---|--------------------9p0---|
A|-------10p0-0-----------0-|-------10p0-0-----------0-|
G|-7/9p0--------7/9p0-------|-7/9p0--------7/9p0-------|
D|--------------------------|--------------------------|
A|--------------------------|--------------------------|
D|--------------------------|--------------------------|

Bridge part 2:

Guitar 1:
d|-------------------------|----------------------------|
A|-------------------------|----------------------------|
G|-------7p0-999p0-7p0-----|-------7p0--9/11p0--9p0-7p0-|
D|-7/9p0---------------9p0-|-7/9p0----------------------|
A|-------------------------|----------------------------|
D|-------------------------|----------------------------|

d|-------------------------|-------------------------|
A|-------------------------|-------------------------|
G|-------------------------|-------------------------|
D|-0-4p0-2p0-5-5p0-4p0-2p0-|-0-4p0-2p0-5-5p0-4p0-2p0-|
A|-------------------------|-------------------------|
D|-------------------------|-------------------------|

[Guitar 2 plays the same thing as in part 1]

Bridge part 3-

Guitar 1:
d|-----0---2/4-|-----0---2/4-2-0-|
A|-------0-----|-------0---------|
G|-2/4---------|-2/4-------------|
D|-------------|-----------------|
A|-------------|-----------------|
D|-------------|-----------------|

d|-0-----------|-------------|-------------|-------------|
A|-5-5-5-5-5-5-|-5-5-5-5-5-5-|-5-5-5-5-5-5-|-5-5-5-5-5-5-|
G|-4-4-4-4-4-4-|-4-4-4-4-4-4-|-4-4-4-4-4-4-|-4-4-4-4-4-4-|
D|-------------|-------------|-------------|-------------|
A|-------------|-------------|-------------|-------------|
D|-------------|-------------|-------------|-------------|

Guitar 2:
d|---------|---------|-------|---------------|---------|--------------|
A|-7-5-7/9-|-7-5-7/9-|-7-5---|-7-5-----0h2---|-7-5-7/9-|-7-5-7/9--9p0-|
G|---------|---------|-----4-|-----4p0-----0-|---------|--------------|
D|---------|---------|-------|---------------|---------|--------------|
A|---------|---------|-------|---------------|---------|--------------|
D|---------|---------|-------|---------------|---------|--------------|

d|-------------|-------------|-------------|-------------|
A|-7-7-7-5-5-5-|-2-2-2-2-2-2-|-7-7-7-5-5-5-|-2-2-2-2-2-2-|
G|-------------|-------------|-------------|-------------|
D|-------------|-------------|-------------|-------------|
A|-------------|-------------|-------------|-------------|
D|-------------|-------------|-------------|-------------|

[Repeat Chorus]

Post-Chorus 3-

(Once again, strumming not shown)

Guitar 1:
d|-----------------|-----------------|-----------------|---------------------|
A|-----------------|-----------------|-----------------|---------------------|
G|-----------------|-----------------|-----------------|---------9/11-11\9-9-|
D|-0-0-0-0-0-0-0-0-|-5-5-5-5-5-5-5-5-|-7-7-7-7-7-7-7-7-|-9-9-9-9-x-----x---x-|
A|-0-0-0-0-0-0-0-0-|-5-5-5-5-5-5-5-5-|-7-7-7-7-7-7-7-7-|-9-9-9-9-7/-9--9\7-7-|
D|-0-0-0-0-0-0-0-0-|-5-5-5-5-5-5-5-5-|-7-7-7-7-7-7-7-7-|-9-9-9-9-------------|

Guitar 2:
d|-----------------|-----------------|-----------------|-----------------|
A|-----------------|-----------------|-----------------|-----------------|
G|-----------------|-----------------|-----------------|-----------------|
D|-0-0-0-0-0-0-0-0-|-5-5-5-5-5-5-5-5-|-7-7-7-7-7-7-7-7-|-9-9-9-9-9-9-9-9-|
A|-0-0-0-0-0-0-0-0-|-5-5-5-5-5-5-5-5-|-7-7-7-7-7-7-7-7-|-9-9-9-9-9-9-9-9-|
D|-0-0-0-0-0-0-0-0-|-5-5-5-5-5-5-5-5-|-7-7-7-7-7-7-7-7-|-9-9-9-9-9-9-9-9-|

Guitar 1 and 2:
d|-----------------|-----------------|-----------------|-----------------|
A|-----------------|-----------------|-----------------|-----------------|
G|-----------------|-----------------|-----------------|-----------------|
D|-0-0-0-0-0-0-0-0-|-5-5-5-5-5-5-5-5-|-7-7-7-7-7-7-7-7-|-9-9-9-9-9-9-9-9-|
A|-0-0-0-0-0-0-0-0-|-5-5-5-5-5-5-5-5-|-7-7-7-7-7-7-7-7-|-9-9-9-9-9-9-9-9-|
D|-0-0-0-0-0-0-0-0-|-5-5-5-5-5-5-5-5-|-7-7-7-7-7-7-7-7-|-9-9-9-9-9-9-9-9-|

End on-

d|-----------------|
A|-----------------|
G|-----------------|
D|-9-9-9-x-9-9-9-0-|
A|-9-9-9-x-9-9-9-0-|
D|-9-9-9-x-9-9-9-0-|

************************************

| /   slide up
| \   slide down
| h   hammer-on
| p   pull-off
| ~   vibrato
| +   harmonic
| x   Mute note
| b   Bend
| pb  Pre-bend
| br  Bend release
| pbr Pre-bend release
| brb Bend release bend
************************************
Suggest correction
What's this?
You can suggest a correction to this tab. Community and Mods will review your correction and vote to approve or reject it.
comments
We did not receive enough feedback on this tab! Please rate:
print report bad tab
1 2 3 4 5
1 comment total.
0 reply
S2S 459 wrote on February 4 2013, 01:50 pm

This tab is absolutely perfect. Thank you so much and keep the 'Box tabs coming!

guest
You may want to rate the tab now too:
select rating
Please do not post tabs as comments. Select "correction" instead!