Oops, an error
Loading. Please wait.

Ask My Flashlight Tab

351 views 1 this week
no commentswrite comment
1 2 3 4 5
please rate
add to favorites
launch autoscroll
font size
0
reset
how to read this tab
guitar tuner
Tab Pro tools
  • play this tab
  • loop segment
  • change instrument
  • show fretboard
  • metronome
Autoscroll
slow
fast
+/-
esc
set tempo
stop
Contributor
Difficulty
novice
-------------------------------------------------------------------------------
                         WEATHERBOX- Ask My Flashlight
-------------------------------------------------------------------------------
Tabbed by: mka12992
E-mail: mka12992@aol.com

Tuning: DADGAD

Apologies if the tab is hard to follow, this song's structure makes it hard to tab out.
As always though, I promise this is accurate.

Intro-

Guitar 1 only:
d|----------------------|----------------|------------------------|---------------|
A|----------------------|----------------|------------------------|---------------|
G|----------------------|----------------|------------------------|---------------|
D|----------------------|----------------|----------------7\------|-----7---------|
A|-8\-------8-8----5-5--|-8--5-----------|-/8--10-10--8-8-----5-5-|-8-8---8-------|
D|-----8-8-------8------|-------7---8----|------------------------|---------7---8-|

d|----------------|
A|----------------|
G|-----10------3--|
D|---7-------3----| x3
A|-8-------5------|
D|----------------|

"I with my flashlight..."-

Guitar 1:
d|----------------|
A|----------------|
G|-----10------3--|
D|---7-------3----| x4
A|-8-------5------|
D|----------------|

Guitar 2:
d|-----------------|
A|-----------------|
G|-----10-------7--|
D|---7-------10----| x3
A|-8-------8-------|
D|-----------------|

"With my dirty hands..."-

Guitar 1:
d|----------------|
A|----------------|
G|-----10------3--|
D|---7-------3----| x4
A|-8-------5------|
D|----------------|

Guitar 2:
d|-----------------|
A|-----------------|
G|-----10-------7--|
D|---7-------10----| x3
A|-8-------8-------|
D|-----------------|

"My flashlight is the only light that I have..."-

Guitar 1(Figure out strumming yourself):
d|------|-----|
A|------|-----|
G|--10--|--3--|
D|---7--|--3--|
A|---8--|--5--|
D|------|-----|

Guitar 2 (enter at "Have..")

  [play 6x]
d|-------10---|--7-7-7-|--5-5-5-|
A|---8------8-|--------|--------|
G|-7---7------|-5-5-5--|-2-2-2--|
D|------------|--------|--------|
A|------------|--------|--------|
D|------------|--------|--------|

"My flashlight is holy bright..."-

Guitar 1(Figure out strumming yourself):
d|------|-------------------------|
A|------|-------------------------|
G|--10--|-3-3-3-3-3-3-------------|
D|---7--|-3-3-3-3-3-3-----3-5p3---|
A|---8--|-5-5-5-5-5-5-3/5-------5-|
D|------|-------------------------|

Guitar 2:

  [play 7x]             [play 4x]
d|-------3---|--5-5-5-|------7--7-|
A|---3-----3-|--------|---5----5--|
G|-2---2-----|-2-2-2--|-5---5-----|
D|-----------|--------|-----------|
A|-----------|--------|-----------|
D|-----------|--------|-----------|

"A stare can share..."-

Guitar 1 only (figure out strumming yourself):
d|-----|-----|
A|-----|-----|
G|--5--|--3--|
D|--2--|--3--|
A|--3--|--5--|
D|-----|-----|


"A stare from the guard..."-

[Same chords as above, just played way faster]

Chorus:

Guitar 1 and 2 (figure strumming out yourself):
d|-----|-----|
A|-----|-----|
G|--5--|--3--|
D|--5--|--3--|
A|--3--|--5--|
D|--3--|-----|

One of the guitars may be playing this:
d|-----|-----|
A|-----|-----|
G|--5--|--3--|
D|--x--|--x--|
A|--3--|--5--|
D|-----|-----|

"Because it shouldn't sit..."-

Guitar 1(figure out strumming yourself):
d|-----|-----|
A|-----|-----|
G|--5--|--3--|
D|--2--|--3--|
A|--3--|--5--|
D|-----|-----|

Guitar 2 (figure out strumming yourself):
d|------|------|
A|------|------|
G|------|------|
D|------|------|
A|-(3)--|-(5)--|
D|--3---|--5---|

[Repeat Chorus]

"But I should ask what's in your head"-

Guitar 1(figure out strumming yourself):
d|-----|-----|
A|-----|-----|
G|--5--|--3--|
D|--2--|--3--|
A|--3--|--5--|
D|-----|-----|

Guitar 2 (Come in at "And you ask for a light...":
d|-------------10-------10---------------|
A|----------10-------10------12-10-------|
G|-------10-------10------10-------10----|
D|-10/12------------------------------12-|
A|---------------------------------------|
D|---------------------------------------|

d|-------------10-------12--------------|
A|----------10-------10-----12-10-------|
G|-------10-------10--------------10----|
D|-10/12-----------------------------12-|
A|--------------------------------------|
D|--------------------------------------|

[Last chorus uses the same chords as the others, just different strumming]

And there you have it! Enjoy. :)

************************************

| /   slide up
| \   slide down
| h   hammer-on
| p   pull-off
| ~   vibrato
| +   harmonic
| x   Mute note
| b   Bend
| pb  Pre-bend
| br  Bend release
| pbr Pre-bend release
| brb Bend release bend

************************************
comments
We did not receive enough feedback on this tab! Please rate:
print report bad tab
1 2 3 4 5
I want to post or [tab]
guest
You may want to rate the tab now too:
select rating
Please do not post tabs as comments. Select "correction" instead!