Oops, an error
Loading. Please wait.

Snakes Our Ground Tab

version 2
version 2

Whole song

  • Includes the filler riffs in between the main riff... Show more
19 views 3 this week
no commentswrite comment
1 2 3 4 5
3 more votes to show rating
add to favorites
launch autoscroll
font size
0
reset
how to read this tab
guitar tuner
Autoscroll
slow
fast
+/-
esc
set tempo
stop
Help us to improve Ultimate-Guitar.com Take our survey!
×
Author
Difficulty
Tuning
intermediate
D A D G B E
About this tab version
Includes the filler riffs in between the main riffs. Chords for the chorus are also different. Lead guitar for bridge instead of palm mutes on F#5 and D5 chords. Was this info helpful? Yes No
Tab by Nate Allen
Tuning: DADGAD

[Intro]

[0:00 - 0:12]

D|-------------------------------------------------------------------------------------------------------|
A|-------------------------------------------------------------------------------------------------------|
G|-------6-6-6-------6-6-6-------6-6-6-------------------------------------------------------------------|
D|-0-0-0-7-7-7-0-0-0-7-7-7-0-0-0-7-7-7-4-4-4-2-2-2--x2---------------------------------------------------|
A|-0-0-0-------0-0-0-------0-0-0-------5-5-5-2-2-2-------------------------------------------------------|
D|-0-0-0-------0-0-0-------0-0-0-------4-4-4-2-2-2-------------------------------------------------------|

[0:12 - 0:22]

D|-------------------------------------------------------------------------------------------------------|
A|-------------------------------------------------------------------------------------------------------|
G|-------6---6---------6---6---------6---6---------------------------------------------------------------|
D|-0---x-7---6---0---x-7---7---0---x-7---7-----7p6---6h7--x2---------------------------------------------|
A|-0---x---------0---x---------0---x---------------------------------------------------------------------|
D|-0---x---------0---x---------0---x---------0-----7-----------------------------------------------------|
 

[Verse]

[0:22 - 0:42]

D|-------------------------------------------------------------------------------------------------------|
A|-------------------------------------------------------------------------------------------------------|
G|-------------------------------------------------------------------------------------------------------|
D|-0~~---------7p6---6h7-0~~---------7p6---6h7-0~~---------7p6---6h7-0~~---------7p6---6h7---------------|
A|-0~~-------------------0~~-------------------0~~-------------------0~~---------------------------------|
D|-0~~-------7-----7-----0~~-------7-----7-----0~~-------7-----7-----0~~-------7-----7-------------------|

[0:42 - 0:54]

D|-------------------------------------------------------------------------------------------------------|
A|-------------------------------------------------------------------------------------------------------|
G|-------6---6---------6---6---------6---6---------------------------------------------------------------|
D|-0---x-7---6---0---x-7---7---0---x-7---7-----7p6---6h7--x2---------------------------------------------|
A|-0---x---------0---x---------0---x---------------------------------------------------------------------|
D|-0---x---------0---x---------0---x---------0-----7-----------------------------------------------------|

[0:54 - 1:11]
              Note** During the slide, release on 1st string
D|-------7-\--x----14---11-\-0-----------------------------14--11-\-0------------------------------------|
A|-------9-\--12--------12-\-0------------------9*-9-\-12------12-\-0------------------------------------|
G|-------------------------------------------------------------------------------------------------------|
D|-0----------------------------x-7p6---6h7-0---------------------------x--7p6----6h7--------------------|
A|-0----------------------------x-----------0---------------------------x--------------------------------|
D|-0----------------------------x-----7-----0---------------------------x-------7------------------------|

D|------7-/-x---14--11-\-0------------------7-/-x--14-11-11-11-\-0---------------------------------------|
A|------7-/-12--12--12-\-0------------------9-/-12----12-12-12-\-0---------------------------------------|
G|-------------------------------------------------------------------------------------------------------|
D|-0-----------------------x-7p6---6h7-0-----------------------------------------------------------------|
A|-0-----------------------x-----------0-----------------------------------------------------------------|
D|-0-----------------------x-----7-----0-----------------------------------------------------------------|


[Chorus]

[1:11 - 1:21]

D|-------------------------------------------------------------------------------------------------------|
A|-------------------------------------------------------------------------------------------------------|
G|-------------------------------------------------------------------------------------------------------|
D|-------------0-0-0-0-0-0-0h44-4-4-4-4-2-2-2-2-2-2-2~--4~---7~------------------------------------------|
A|-------------0-0-0-0-0-0-0h55-5-5-5-5-2-2-2-2-2-2-2~--5~---7~------------------------------------------|
D|--4~---7~----0-0-0-0-0-0-0h44-4-4-4-4-2-2-2-2-2-2-2~--4~---7~------------------------------------------|

D|-------------------------------------------------------------------------------------------------------|
A|-------------------------------------------------------------------------------------------------------|
G|-------------------------------------------------------------------------------------------------------|
D|--0-0-0-0-0-0-0h44-4-4-4-4-2-2-2-2-2-2-2~--4~---7~-----------------------------------------------------|
A|--0-0-0-0-0-0-0h44-4-4-4-4-2-2-2-2-2-2-2~--4~---7~-----------------------------------------------------|
D|--0-0-0-0-0-0-0h44-4-4-4-4-2-2-2-2-2-2-2~--4~---7~-----------------------------------------------------|

[Verse]

[1:21 - 1:31]

D|-------------------------------------------------------------------------------------------------------|
A|-------------------------------------------------------------------------------------------------------|
G|-------6-6-6-------6-6-6-------6-6-6-------------------------------------------------------------------|
D|-0-0-0-7-7-7-0-0-0-7-7-7-0-0-0-7-7-7-4-4-4-2-2-2--x2---------------------------------------------------|
A|-0-0-0-------0-0-0-------0-0-0-------5-5-5-2-2-2-------------------------------------------------------|
D|-0-0-0-------0-0-0-------0-0-0-------4-4-4-2-2-2-------------------------------------------------------|

[1:31 - 1:50]

Note** Warren plas some stuff on the 3 high strings instead of what follows in this tab
       But I've lost my patience with it. I'll come back to it soon.

D|-------7-\--x----14---11------------------------------14--11-------------------------------------------|
A|-------9-\--12--------12-------------------9*-9-\-12------12-------------------------------------------|
G|-------------------------------------------------------------------------------------------------------|
D|-0------------------------x-7p6---6h7-0------------------------x--7p6----6h7---------------------------|
A|-0------------------------x-----------0------------------------x---------------------------------------|
D|-0------------------------x-----7-----0------------------------x-------7-------------------------------|

D|------7-/-x---14--11-------------------7-/-x--14-11-11-11-/-0------------------------------------------|
A|------7-/-12--12--12-------------------9-/-12----12-12-12-/-0------------------------------------------|
G|-------------------------------------------------------------------------------------------------------|
D|-0--------------------x-7p6---6h7-0--------------------------------------------------------------------|
A|-0--------------------x-----------0--------------------------------------------------------------------|
D|-0--------------------x-----7-----0--------------------------------------------------------------------|

[Chorus]

Note** Chorus 2 is the exact same as Chours 1, only do the chord progression an extra 2 times

[Bridge]

[2:11 - 2:50]

D|-------------------------------------------------------------------------------------------------------|
A|-------------------------------------------------------------------------------------------------------|
G|--6-6---6-6-6-6-6---6-6-6-6-6---6-6-6-6-6---6-6-9-9-9---9-9-9-9-9---9-9-9-9-9---9-9-9-9-9---9-9-9-6-6--|
D|--7-7---7-7-7-7-7---7-7-7-7-7---7-7-7-7-7---7-7-7-7-7---7-7-7-7-7---7-7-7-7-7---7-7-7-7-7---7-7-7-7-7--| 
A|-------------------------------------------------------------------------------------------------------|  
D|-------------------------------------------------------------------------------------------------------|

[2:50 - 3:09]

Note** Play 1/16 notes for most of these (I'm not going to count these ones out for you guys, sorry)

D|-------------------------------------------------------------------------------------------------------|
A|-------------------------------------------------------------------------------------------------------|
G|-------------------------------------------------------------------------------------------------------|
D|-------------------------------------------------------------------------------------------------------|
A|----------5-5-5-5-4-4-4-4-4~--2~--2-/-4~~-----------4-4-4-4--------------------------------------------|
D|--4-4-4-4-----------------------------------7-7-7-7---------9-9-9-9-9-9-9-9----------------------------|

D|-------------------------------------------------------------------------------------------------------|
A|-------------------------------------------------------------------------------------------------------|
G|-------------------------------------------------------------------------------------------------------|
D|------------------------------------------------------------7~-----------------------------------------|
A|----------5-5-5-5-4-4-4-4-4~--2~--2-/-4~~-----------4-4-4-4-7~-----------------------------------------|
D|--4-4-4-4-----------------------------------7-7-7-7---------7~-----------------------------------------|

[Chorus]

Note** Still the same

[Outro]

[3:30 - 3:41]

D|-------------------------------------------------------------------------------------------------------|
A|-------------------------------------------------------------------------------------------------------|
G|-------6---6---------6---6---------6---6---------------------------------------------------------------|
D|-0---x-7---6---0---x-7---7---0---x-7---7-----7p6---6h7--x2---------------------------------------------|
A|-0---x---------0---x---------0---x---------------------------------------------------------------------|
D|-0---x---------0---x---------0---x---------0-----7-----------------------------------------------------|



************************************

| x  Dead note
| h  Hammer-on
| p  Pull-off
| /  Slide up
| \  Slide down
| ~  Vibrato
| n* Pinch Harmonic

************************************
Suggest correction
Give kudos to tab author, rate the tab!
1 2 3 4 5
comments
print report bad tab
guest
You may want to rate the tab now too:
select rating
Wanna post a correction for this tab? Suggest correction