Oops, an error
Loading. Please wait.

The Clearing Tab

1,197 views 6 this week
1 commentread comment
1 2 3 4 5
please rate
add to favorites
launch autoscroll
font size
0
reset
how to read this tab
guitar tuner
Autoscroll
slow
fast
+/-
esc
set tempo
stop
Help us to improve Ultimate-Guitar.com Take our survey!
×
Author
Difficulty
novice
-------------------------------------------------------------------------------
                        WEATHERBOX- The Clearing
-------------------------------------------------------------------------------
Tabbed by: mka12992
E-mail: mka12992@aol.com

Tuning: DADGAD

Intro- 

Guitar 1:
d|-------------|-------------|
A|-------------|-------------|
G|-------------|-------------|
D|-7-7-7-7-7-7-|-7-7-7-7-7-7-|
A|-5-5-5-5-5-5-|-5-5-5-5-5-5-|
D|-4-4-4-4-4-4-|-5-5-5-5-5-5-|

Guitar 2:
d|-----------|-----|-----------|-----|---------|---------|---------|-----|
A|-----------|-----|-----------|-----|---------|---------|---------|-----|
G|------7----|-----|------7--9-|-----|---------|---------|---------|-----|
D|-7/9-----9-|-7---|-7/9-------|-7---|-7/9---7-|---------|-----7---|-----|
A|-----------|-----|-----------|-----|---------|-9--7--9-|-5-------|-5---|
D|-----------|-----|-----------|-----|---------|---------|---------|-----|

There's also another guitar playing this:
d|-------------|-------------|
A|-------------|-------------|
G|-7-7-7-7-7-7-|-9-9-9-9-9-9-|
D|-x-x-x-x-x-x-|-x-x-x-x-x-x-|
A|-5-5-5-5-5-5-|-7-7-7-7-7-7-|
D|-------------|-------------|

"I woke in the snow..."-

Guitar 1:
d|-------------|-------------|
A|-------------|-------------|
G|-------------|-------------|
D|-7-7-7-7-7-7-|-7-7-7-7-7-7-|
A|-5-5-5-5-5-5-|-5-5-5-5-5-5-|
D|-4-4-4-4-4-4-|-5-5-5-5-5-5-|

Guitar 2 (enter at "ten picket fences..."):
d|-------------|-------------|
A|-------------|-------------|
G|-7-7-7-7-7-7-|-9-9-9-9-9-9-|
D|-x-x-x-x-x-x-|-x-x-x-x-x-x-|
A|-5-5-5-5-5-5-|-7-7-7-7-7-7-|
D|-------------|-------------|

"I walked past the gardens..."-

Guitar 1:
d|-----------------------|-----------------------|---------|---------|
A|-----------------------|-----------------------|---------|---------|
G|-----------------------|-----------------------|-7-------|-7-------|
D|-7-7-7-7-7--7-7-7-7-7--|-7-7-7-7-7--7-7-7-7-7--|-0-(x12)-|-0-(x12)-|
A|-4-4-4-4-4--4-4-4-4-4--|-5-5-5-5-5--5-5-5-5-5--|-x-------|-x-------|
D|-5-5-5-5-5--5-5-5-5-5--|-5-5-5-5-5--5-5-5-5-5--|-9-------|-7-------|

Guitar 2:
d|-----------------------|-----------------------|----------------|----------|
A|-----------------------|-----------------------|----------------|----------|
G|-6-6-6-6-6--6-6-6-6-6--|-7-7-7-7-7--7-7-7-7-7--|-11------9------|-14-------|
D|-x-x-x-x-x--x-x-x-x-x--|-x-x-x-x-x--x-x-x-x-x--|--x-(x6)-x-(x6)-|--x-(x12)-|
A|-4-4-4-4-4--4-4-4-4-4--|-5-5-5-5-5--5-5-5-5-5--|--9------7------|-12-------|
D|-----------------------|-----------------------|----------------|----------|

"But they found me in the snow..."-

Guitar 1:
d|-------------|-------------|
A|-------------|-------------|
G|-------------|-------------|
D|-7-7-7-7-7-7-|-7-7-7-7-7-7-|
A|-5-5-5-5-5-5-|-5-5-5-5-5-5-|
D|-4-4-4-4-4-4-|-5-5-5-5-5-5-|

Guitar 2 (enter at "ten picket fences..."):
d|-------------------|-------------|
A|-------------------|-------------|
G|-14-14-14-14-14-14-|-9-9-9-9-9-9-|
D|--x--x--x--x--x--x-|-x-x-x-x-x-x-|
A|-12-12-12-12-12-12-|-7-7-7-7-7-7-|
D|-------------------|-------------|

"Back through the gardens..."-

Guitar 1:
d|-----------------------|-----------------------|---------|---------|
A|-----------------------|-----------------------|---------|---------|
G|-----------------------|-----------------------|-7-------|-7-------|
D|-7-7-7-7-7--7-7-7-7-7--|-7-7-7-7-7--7-7-7-7-7--|-0-------|-0-------|
A|-4-4-4-4-4--4-4-4-4-4--|-5-5-5-5-5--5-5-5-5-5--|-x-(x12)-|-x-(x12)-|
D|-5-5-5-5-5--5-5-5-5-5--|-5-5-5-5-5--5-5-5-5-5--|-9-------|-7-------|

Guitar 2:
d|-----------------------|-----------------------|----------------|----------|
A|-----------------------|-----------------------|----------------|----------|
G|-6-6-6-6-6--6-6-6-6-6--|-7-7-7-7-7--7-7-7-7-7--|-11------9------|-14-------|
D|-x-x-x-x-x--x-x-x-x-x--|-x-x-x-x-x--x-x-x-x-x--|--x-(x6)-x-(x6)-|--x-(x12)-|
A|-4-4-4-4-4--4-4-4-4-4--|-5-5-5-5-5--5-5-5-5-5--|--9------7------|-12-------|
D|-----------------------|-----------------------|----------------|----------|

"The clearing grew..."-

Guitar 1:
d|---------|---------|---------|---------|
A|---------|---------|---------|---------|
G|---------|-7-------|-7-------|-7-------|
D|-7-------|-0-------|-0-------|-0-------|
A|-5-(x12)-|-x-(x12)-|-x-(x12)-|-x-(x12)-|
D|-4-------|-7-------|-9-------|-7-------|

Guitar 2:
d|---------|---------|----------|----------|
A|---------|---------|----------|----------|
G|-7-------|-9-------|-11-------|-14-------|
D|-x-(x12)-|-x-(x12)-|--x-(x12)-|--x-(x12)-|
A|-5-------|-7-------|--9-------|-12-------|
D|---------|---------|----------|----------|

"And you walked up..."-

[Guitar 1 plays the same thing as before]

Guitar 2:
d|---------|---------|---------|---------|---------|---------|---------|---------|
A|---------|---------|---------|---------|---------|---------|---------|---------|
G|-7-------|-9-------|-11------|-14------|-16------|-18------|-19------|-21------|
D|-x-(x12)-|-x-(x12)-|--x-(x6)-|--x-(x6)-|--x-(x6)-|--x-(x6)-|--x-(x6)-|--x-(x6)-|
A|-5-------|-7-------|--9------|-12------|-14------|-16------|-17------|-19------|
D|---------|---------|---------|---------|---------|---------|---------|---------|

Instrumental break-

Guitar 1:
d|---------|---------|--------|---------|---------|---------|---------|
A|---------|---------|--------|---------|---------|---------|---------|
G|-7-------|-11------|-9------|-16------|-18------|-19------|-21------|
D|-x-(x24)-|--x-(x6)-|-x-(x6)-|--x-(x6)-|--x-(x6)-|--x-(x6)-|--x-(x6)-|
A|-5-------|--9------|-7------|-14------|-16------|-17------|-19------|
D|---------|---------|--------|---------|---------|---------|---------|

d|---------|---------|---------|---------|---------|----------|
A|---------|---------|---------|---------|---------|----------|
G|-19------|-16------|-18------|-19------|-21------|-23*------|
D|--x-(x6)-|--x-(x6)-|--x-(x6)-|--x-(x6)-|--x-(x6)-|--x*-(x6)-|
A|-17------|-14------|-16------|-17------|-19------|-21*------|
D|---------|---------|---------|---------|---------|----------|

*Alternatively, if you don't have 24 frets:
d|----|
A|-21-|
G|--x-|
D|--x-|
A|-21-|
D|----|

Guitar 2:
d|---------|---------|---------|--------|
A|---------|---------|---------|--------|
G|-19------|-14------|-12------|-9------|
D|--x-(x6)-|--x-(x6)-|--x-(x6)-|-x-(x6)-|
A|-17------|-12------|-10------|-7------|
D|---------|---------|---------|--------|


End-

Guitar 1:
d|-------------|-------------|
A|-------------|-------------|
G|-------------|-------------|
D|-7-7-7-7-7-7-|-7-7-7-7-7-7-|
A|-5-5-5-5-5-5-|-5-5-5-5-5-5-|
D|-4-4-4-4-4-4-|-5-5-5-5-5-5-|


************************************

| /   slide up
| \   slide down
| h   hammer-on
| p   pull-off
| ~   vibrato
| +   harmonic
| x   Mute note
| b   Bend
| pb  Pre-bend
| br  Bend release
| pbr Pre-bend release
| brb Bend release bend

************************************
Suggest correction
Give kudos to tab author, rate the tab!
1 2 3 4 5
comments
print report bad tab
1 comment total.
0 reply
S2S 306 wrote on February 11 2013, 02:04 pm

Perfect tab. This band rocks so freaking much.

guest
You may want to rate the tab now too:
select rating
Please do not post tabs as comments. Select "correction" instead!