Oops, an error
Loading. Please wait.

Bad Things Tab

version 2
version 2

Whole song

Interactive

2,153 views 1 this week
5 commentsread comments
1 2 3 4 5
worth learning
x 5
add to favorites
launch autoscroll
font size
0
reset
how to read this tab
guitar tuner
Autoscroll
slow
fast
+/-
esc
set tempo
stop
Help us to improve Ultimate-Guitar.com Take our survey!
×
Author
this my first tab it sounds right but it could be wrong

NOrmal tuning
*=hold
e---------------------|
B---------------------|
G---------------------| repeat untill chorus
D---------------------|
A-5-5--7-7--5-5--3-5--|
E-3-3--5-5--3-3--1-3--|
chorus
E-----------------------|
B-----------------------|
G-----------------------|
D-----------------------|
A-7*--5*--3*------------|
E-5*--3*--1*------------|
plAY THIS WHEN WEDNESDAY SINGS- I WOULD NE LYING IF I SAID THAT WASN'T TRUE
repeat first riff through chorus...then there is a solo which is hard to hear then it 
back to the first riff
good luck
any suggestions or coments PLEASE email me @ dreaderlocks@hotmail.co.uk
Suggest correction
What's this?
You can suggest a correction to this tab. Community and Mods will review your correction and vote to approve or reject it.
comments
print report bad tab
5 comments total. Showing first comments.
0 reply
BroDD 841 wrote on July 8 2006, 09:32 am

This tab is awful... Also, Wednesday does not use standard tuning on his solo album

+1 reply
srpv92 80 wrote on December 4 2006, 09:09 am

sozdude...your in the wrong tunning...check out my tab bad things(ver3)and you can see your mistakes.

-1 reply
BurnThisFlag 48 wrote on October 15 2007, 05:53 am

if make the tuning D. and instead of playing,

A-5-5--7-7--5-5--3-5--|
E-3-3--5-5--3-3--1-3--|

Play

D-5-5--8-8--5-5--4-5--|
A-5-5--8-8--5-5--4-5--|
E-3-3--6-6--3-3--2-3--|

It sounds good

guest
You may want to rate the tab now too:
select rating
Please do not post tabs as comments. Select "correction" instead!