Oops, an error
Loading. Please wait.

Bloodwork Ep album tab

76 views 1 this week
1 commentread comment
1 2 3 4 5
1 last vote to show rating
add to favorites
×
Save as Personal and add changes to this tab that will be seen only by you. Learn more ›
×
You can save this tab as Personal to edit and correct it or add notes. All changes will be seen only by you. Learn more »
launch autoscroll
font size
0
reset
how to read this tab
guitar tuner
edit
Autoscroll
slow
fast
+/-
esc
set tempo
stop
This album tab is created by Living Dead 31.

Wednesday 13 - Bloodwork E.P (2008)

Tuning: Drop C





1. B-Movie Babylon



[Intro]:

(Guitar 1):


D----------------------------------------------
A----------------------------------------------
F-----------------------------8~----8-10-8-8---
C--0~---0~----7~----7~-------------------------
G----------------------------------------------
C---------------------------------------------- (x2)


(Guitar 2):


D--------
A--------
F--------
C--0-0---
G--0-0---
C--0-0---
   . .             


(Guitar 1):


D----------------------------------------------
A----------------------------------------------
F-----------------------------8~----8-10-8-8---
C--0~---0~----7~----7~-------------------------
G----------------------------------------------
C---------------------------------------------- (x2)


(Guitar 2):


D--------------------------------------------
A--------------------------------------------
F--------------------------------------------
C------------------0-0-0-0-0-0-0-0-0-0-0-0---
G------------------0-0-0-0-0-0-0-0-0-0-0-0---
C------------------0-0-0-0-0-0-0-0-0-0-0-0---
                   . . . . . . . . . . . .   


[Verse]:


D----------------------------------
A----------------------------------
F----------------------------------
C--0---0---7---7---1---1--3-1--1---
G--0---0---7---7---1---1--3-1--1---
C--0---0---7---7---1---1--3-1--1---  (x4)


D----------------------------------------------
A----------------------------------------------
F-----------------------------8~----8-10-8-8---
C--0~---0~----7~----7~-------------------------
G----------------------------------------------
C---------------------------------------------- (x4)


D----------------------------------
A----------------------------------
F----------------------------------
C--0---0---7---7---1---1--3-1--1---
G--0---0---7---7---1---1--3-1--1---
C--0---0---7---7---1---1--3-1--1---  (x4)


[Pre-Chorus]:


D-------------------------------------------------------------------
A-------------------------------------------------------------------
F-------------------------------------------------------------------
C--8--8--8--8-8--7--7--7--7-7---0-0-3-0--x--x-x--0-0-3-0---x--x-x---
G--8--8--8--8-8--7--7--7--7-7---0-0-3-0--x--x-x--0-0-3-0---x--x-x---
C--8--8--8--8-8--7--7--7--7-7---0-0-3-0--x--x-x--0-0-3-0---x--x-x---  (x2)


D---------------------------------------------------------------------------
A---------------------------------------------------------------------------
F---------------------------------------------------------------------------
C--8--8--8--8--7--7--7--7--8--8--8--8--7--7--7--7--8--8--8--8--7--7--6--6---
G--8--8--8--8--7--7--7--7--8--8--8--8--7--7--7--7--8--8--8--8--7--7--6--6---
C--8--8--8--8--7--7--7--7--8--8--8--8--7--7--7--7--8--8--8--8--7--7--6--6---



[Chorus]:


D----------------------------------
A----------------------------------
F----------------------------------
C--0---0---7---7---1---1--3-1--1---
G--0---0---7---7---1---1--3-1--1---
C--0---0---7---7---1---1--3-1--1---  (x4)



[Verse]:


D----------------------------------------------
A----------------------------------------------
F-----------------------------8~----8-10-8-8---
C--0~---0~----7~----7~-------------------------
G----------------------------------------------
C----------------------------------------------  (x4)


D----------------------------------
A----------------------------------
F----------------------------------
C--0---0---7---7---1---1--3-1--1---
G--0---0---7---7---1---1--3-1--1---
C--0---0---7---7---1---1--3-1--1---  (x4)


[Pre-Chorus]:


D-------------------------------------------------------------------
A-------------------------------------------------------------------
F-------------------------------------------------------------------
C--8--8--8--8-8--7--7--7--7-7---0-0-3-0--x--x-x--0-0-3-0---x--x-x---
G--8--8--8--8-8--7--7--7--7-7---0-0-3-0--x--x-x--0-0-3-0---x--x-x---
C--8--8--8--8-8--7--7--7--7-7---0-0-3-0--x--x-x--0-0-3-0---x--x-x---  (x2)


D---------------------------------------------------------------------------
A---------------------------------------------------------------------------
F---------------------------------------------------------------------------
C--8--8--8--8--7--7--7--7--8--8--8--8--7--7--7--7--8--8--8--8--7--7--6--6---
G--8--8--8--8--7--7--7--7--8--8--8--8--7--7--7--7--8--8--8--8--7--7--6--6---
C--8--8--8--8--7--7--7--7--8--8--8--8--7--7--7--7--8--8--8--8--7--7--6--6---



[Chorus]:


D----------------------------------
A----------------------------------
F----------------------------------
C--0---0---7---7---1---1--3-1--1---
G--0---0---7---7---1---1--3-1--1---
C--0---0---7---7---1---1--3-1--1---  (x4)


[Solo]:


D--5--1---------------5--6---5--1---------------5--6---
A--------3--------3-----------------3--------3---------
F-----------2--3-----------------------2--3------------
C------------------------------------------------------
G------------------------------------------------------
C------------------------------------------------------

D--10/---10/---10/---5/---
A-------------------------
F-------------------------
C-------------------------
G-------------------------
C-------------------------


[Pre-Chorus]:


D-------------------------------------------------------------------
A-------------------------------------------------------------------
F-------------------------------------------------------------------
C--8--8--8--8-8--7--7--7--7-7---0-0-3-0--x--x-x--0-0-3-0---x--x-x---
G--8--8--8--8-8--7--7--7--7-7---0-0-3-0--x--x-x--0-0-3-0---x--x-x---
C--8--8--8--8-8--7--7--7--7-7---0-0-3-0--x--x-x--0-0-3-0---x--x-x---  (x2)


D---------------------------------------------------------------------------
A---------------------------------------------------------------------------
F---------------------------------------------------------------------------
C--8--8--8--8--7--7--7--7--8--8--8--8--7--7--7--7--8--8--8--8--7--7--6--6---
G--8--8--8--8--7--7--7--7--8--8--8--8--7--7--7--7--8--8--8--8--7--7--6--6---
C--8--8--8--8--7--7--7--7--8--8--8--8--7--7--7--7--8--8--8--8--7--7--6--6---



[Chorus]:


D----------------------------------
A----------------------------------
F----------------------------------
C--0---0---7---7---1---1--3-1--1---
G--0---0---7---7---1---1--3-1--1---
C--0---0---7---7---1---1--3-1--1---  (x3)

D-------------------------------------
A-------------------------------------
F-------------------------------------
C--0---0---7---7---1---1--3-1--1--0---
G--0---0---7---7---1---1--3-1--1--0---
C--0---0---7---7---1---1--3-1--1--0---


[Outro]:


D----------------------------------------------
A----------------------------------------------
F-----------------------------8~----8-10-8-8---
C--0~---0~----7~----7~-------------------------
G----------------------------------------------
C----------------------------------------------  (x10)







2. Return of The Living Dead


[Intro]:


D---------------------------------------
A---------------------------------------
F-----------------------------5--7--9---
C--/--2-0-2-0-2-0-2---0-2-0---5--7--9---
G--/--2-0-2-0-2-0-2---0-2-0---3--5--7---
C--/--2-0-2-0-2-0-2---0-2-0-------------  (x1)


D----------------------------------
A----------------------------------
F------------------------5--7--9---
C--0-2-0-2-0-2---0-2-0---5--7--9---
G--0-2-0-2-0-2---0-2-0---3--5--7---
C--0-2-0-2-0-2---0-2-0------------- (x3)


[Verse]:

D------------------------------------------------------------------------------------------------------
A------------------------------------------------------------------------------------------------------
F------------------------------------------------------------------------------------------------------
C--2-0-2-0-2-0-2---0-2-0-2-0-2---0-2-0-2-0-2---0-2-0-2-0-2---0-2-0-2-0-2---0-2-0-2-0-2---0-2-0-2-0-2---
G--2-0-2-0-2-0-2---0-2-0-2-0-2---0-2-0-2-0-2---0-2-0-2-0-2---0-2-0-2-0-2---0-2-0-2-0-2---0-2-0-2-0-2---
C--2-0-2-0-2-0-2---0-2-0-2-0-2---0-2-0-2-0-2---0-2-0-2-0-2---0-2-0-2-0-2---0-2-0-2-0-2---0-2-0-2-0-2---
   . . . . . . .   . . . . . .   . . . . . .   . . . . . .   . . . . . .   . . . . . .   . . . . . .

D--------------
A--------------
F--------------
C--0-2-0-2-0---
G--0-2-0-2-0---
C--0-2-0-2-0---
   . . . . .   

D-----------------------------------------------------------------------------------------
A-----------------------------------------------------------------------------------------
F---------------9-------------9-------------9-------------9-------------9-------------9---
C--2-0-2-0-2-0--9--0-2-0-2-0--9--0-2-0-2-0--9--0-2-0-2-0--9--0-2-0-2-0--9--0-2-0-2-0--9---
G--2-0-2-0-2-0--7--0-2-0-2-0--7--0-2-0-2-0--7--0-2-0-2-0--7--0-2-0-2-0--7--0-2-0-2-0--7---
C--2-0-2-0-2-0-----0-2-0-2-0-----0-2-0-2-0-----0-2-0-2-0-----0-2-0-2-0-----0-2-0-2-0------ 

D----------------------------
A----------------------------
F-------------9--------------
C--0-2-0-2-0--9--0-2-0-2-0---
G--0-2-0-2-0--7--0-2-0-2-0---
C--0-2-0-2-0-----0-2-0-2-0---



[Pre-Chorus]:



D---------------------------------------------
A---------------------------------------------
F--5--5--5-5-5-5-5-5-5-5----------------------
C--5--5--5-5-5-5-5-5-5-5--5--5--5-5-5-5-5-5---
G--3--3--3-3-3-3-3-3-3-3--5--5--5-5-5-5-5-5---
C-------------------------5--5--5-5-5-5-5-5---


D-----------------      -------------
A-----------------      -------------
F-------------9---      -------------
C--0-2-0-2-0--9---      --0-2-0-2-0--
G--0-2-0-2-0--7---      --0-2-0-2-0--
C--0-2-0-2-0------ (x3) --0-2-0-2-0--


D-----------------------------------------------------------------------------------
A-----------------------------------------------------------------------------------
F--5--5--5-5-5-5-5-5-5-5------------------------------------------------------------
C--5--5--5-5-5-5-5-5-5-5--5--5--5-5-5-5-5-5--4--4--4-4-4-4-4-4--3--3--3-3-3-3-3-3---
G--3--3--3-3-3-3-3-3-3-3--5--5--5-5-5-5-5-5--4--4--4-4-4-4-4-4--3--3--3-3-3-3-3-3---
C-------------------------5--5--5-5-5-5-5-5--4--4--4-4-4-4-4-4--3--3--3-3-3-3-3-3---



[Chorus]:



D--------------------------------------------------------------------------
A--------------------------------------------------------------------------
F--------------------------------------------------------------------------
C--2-0-2-0-2-0-2---0-2-0-2-0-2---0-2-0-2-0-2---0-2-0-2-0-2---0-2-0-2-0-2---
G--2-0-2-0-2-0-2---0-2-0-2-0-2---0-2-0-2-0-2---0-2-0-2-0-2---0-2-0-2-0-2---
C--2-0-2-0-2-0-2---0-2-0-2-0-2---0-2-0-2-0-2---0-2-0-2-0-2---0-2-0-2-0-2---


D-----------------------------------------------------
A-----------------------------------------------------
F----------5--7--9--------------------------5--7--9---
C--0-2-0---5--7--9----0-2-0-2-0-2---0-2-0---5--7--9---
G--0-2-0---3--5--7----0-2-0-2-0-2---0-2-0---3--5--7---
C--0-2-0--------------0-2-0-2-0-2---0-2-0-------------


[Verse]:


D------------------------------------------------------------------------------------------------------
A------------------------------------------------------------------------------------------------------
F------------------------------------------------------------------------------------------------------
C--2-0-2-0-2-0-2---0-2-0-2-0-2---0-2-0-2-0-2---0-2-0-2-0-2---0-2-0-2-0-2---0-2-0-2-0-2---0-2-0-2-0-2---
G--2-0-2-0-2-0-2---0-2-0-2-0-2---0-2-0-2-0-2---0-2-0-2-0-2---0-2-0-2-0-2---0-2-0-2-0-2---0-2-0-2-0-2---
C--2-0-2-0-2-0-2---0-2-0-2-0-2---0-2-0-2-0-2---0-2-0-2-0-2---0-2-0-2-0-2---0-2-0-2-0-2---0-2-0-2-0-2---
   . . . . . . .   . . . . . .   . . . . . .   . . . . . .   . . . . . .   . . . . . .   . . . . . .


D--------------
A--------------
F--------------
C--0-2-0-2-0---
G--0-2-0-2-0---
C--0-2-0-2-0---
   . . . . .


D-----------------------------------------------------------------------------------------
A-----------------------------------------------------------------------------------------
F---------------9-------------9-------------9-------------9-------------9-------------9---
C--2-0-2-0-2-0--9--0-2-0-2-0--9--0-2-0-2-0--9--0-2-0-2-0--9--0-2-0-2-0--9--0-2-0-2-0--9---
G--2-0-2-0-2-0--7--0-2-0-2-0--7--0-2-0-2-0--7--0-2-0-2-0--7--0-2-0-2-0--7--0-2-0-2-0--7---
C--2-0-2-0-2-0-----0-2-0-2-0-----0-2-0-2-0-----0-2-0-2-0-----0-2-0-2-0-----0-2-0-2-0------ 

D------------------------------
A------------------------------
F---------------9--------------
C--2-0-2-0-2-0--9--0-2-0-2-0---
G--2-0-2-0-2-0--7--0-2-0-2-0---
C--2-0-2-0-2-0-----0-2-0-2-0---


[Pre-Chorus]:


D---------------------------------------------
A---------------------------------------------
F--5--5--5-5-5-5-5-5-5-5----------------------
C--5--5--5-5-5-5-5-5-5-5--5--5--5-5-5-5-5-5---
G--3--3--3-3-3-3-3-3-3-3--5--5--5-5-5-5-5-5---
C-------------------------5--5--5-5-5-5-5-5---


D-----------------      -------------
A-----------------      -------------
F-------------9---      -------------
C--0-2-0-2-0--9---      --0-2-0-2-0--
G--0-2-0-2-0--7---      --0-2-0-2-0--
C--0-2-0-2-0------ (x3) --0-2-0-2-0--


D-----------------------------------------------------------------------------------
A-----------------------------------------------------------------------------------
F--5--5--5-5-5-5-5-5-5-5------------------------------------------------------------
C--5--5--5-5-5-5-5-5-5-5--5--5--5-5-5-5-5-5--4--4--4-4-4-4-4-4--3--3--3-3-3-3-3-3---
G--3--3--3-3-3-3-3-3-3-3--5--5--5-5-5-5-5-5--4--4--4-4-4-4-4-4--3--3--3-3-3-3-3-3---
C-------------------------5--5--5-5-5-5-5-5--4--4--4-4-4-4-4-4--3--3--3-3-3-3-3-3---


[Chorus]:


D------------------------------------
A------------------------------------
F--------------------------5--7--9---
C--2-0-2-0-2-0-2---0-2-0---5--7--9---
G--2-0-2-0-2-0-2---0-2-0---3--5--7---
C--2-0-2-0-2-0-2---0-2-0------------- (x1)

D----------------------------------
A----------------------------------
F------------------------5--7--9---
C--0-2-0-2-0-2---0-2-0---5--7--9---
G--0-2-0-2-0-2---0-2-0---3--5--7---
C--0-2-0-2-0-2---0-2-0------------- (x3)


[Solo]:


D-----------------------------------------------------------------------------------
A-----------------------------------------------------------------------------------
F--16~----14~--12~--11~----9~----7~--9~------16~----14~--12~--11~----9~----7~--9~---
C-----------------------------------------------------------------------------------
G-----------------------------------------------------------------------------------
C-----------------------------------------------------------------------------------


[Pre-Chorus]:

D---------------------------------------------
A---------------------------------------------
F--5--5--5-5-5-5-5-5-5-5----------------------
C--5--5--5-5-5-5-5-5-5-5--5--5--5-5-5-5-5-5---
G--3--3--3-3-3-3-3-3-3-3--5--5--5-5-5-5-5-5---
C-------------------------5--5--5-5-5-5-5-5---


D-----------------      -------------
A-----------------      -------------
F-------------9---      -------------
C--0-2-0-2-0--9---      --0-2-0-2-0--
G--0-2-0-2-0--7---      --0-2-0-2-0--
C--0-2-0-2-0------ (x3) --0-2-0-2-0--


D-----------------------------------------------------------------------------------
A-----------------------------------------------------------------------------------
F--5--5--5-5-5-5-5-5-5-5------------------------------------------------------------
C--5--5--5-5-5-5-5-5-5-5--5--5--5-5-5-5-5-5--4--4--4-4-4-4-4-4--3--3--3-3-3-3-3-3---
G--3--3--3-3-3-3-3-3-3-3--5--5--5-5-5-5-5-5--4--4--4-4-4-4-4-4--3--3--3-3-3-3-3-3---
C-------------------------5--5--5-5-5-5-5-5--4--4--4-4-4-4-4-4--3--3--3-3-3-3-3-3---


[Chorus]:


D------------------------------------
A------------------------------------
F--------------------------5--7--9---
C--2-0-2-0-2-0-2---0-2-0---5--7--9---
G--2-0-2-0-2-0-2---0-2-0---3--5--7---
C--2-0-2-0-2-0-2---0-2-0------------- (x1)

D----------------------------------
A----------------------------------
F------------------------5--7--9---
C--0-2-0-2-0-2---0-2-0---5--7--9---
G--0-2-0-2-0-2---0-2-0---3--5--7---
C--0-2-0-2-0-2---0-2-0------------- (x7)


[Outro]:

D-----------------------------------------------------------------
A-----------------------------------------------------------------
F-----------------------------------------------------------------
C--2-2-2--2--2--2--2-2---2--2--2--2-2---2--2--2--2-2---2--2--2/---
G--2-2-2--2--2--2--2-2---2--2--2--2-2---2--2--2--2-2---2--2--2/---
C--2-2-2--2--2--2--2-2---2--2--2--2-2---2--2--2--2-2---2--2--2/---
   . . .  .  .  .  . .   .  .  .  . .   .  .  .  . .   .  .  .






3. Runnin' Down A Dream



[Intro]:


D---------------------------------
A---------------------------------
F--0-6-0-5-0-4-0-2----------------
C------------------4~--4~-4~-4~---
G---------------------------------
C--------------------------------- (x4)


[Verse]:


D-------------------------------------------------------------------
A-------------------------------------------------------------------
F-------------------------------------------------------------------
C--4-4--4--4-4--4--4-4--4--4-4--4--4-4--4--4-4--4--4-4--4--4-4--4---
G--4-4--4--4-4--4--4-4--4--4-4--4--4-4--4--4-4--4--4-4--4--4-4--4---
C--4-4--4--4-4--4--4-4--4--4-4--4--4-4--4--4-4--4--4-4--4--4-4--4---
   . .     . .     . .     . .     . .     . .     . .     . .

D---------------------------------------------------
A---------------------------------------------------
F---------------------------------------------------
C--2-2--2--2-2--2--2-2--2--2-2--2--4-4--4--4-4--4---
G--2-2--2--2-2--2--2-2--2--2-2--2--4-4--4--4-4--4---
C--2-2--2--2-2--2--2-2--2--2-2--2--4-4--4--4-4--4---
   . .     . .     . .     . .     . .     . .


[Pre-Chorus]:


D---------------------------------
A---------------------------------
F--0-6-0-5-0-4-0-2----------------
C------------------4~--4~-4~-4~---
G---------------------------------
C--------------------------------- (x2)

D---------------------------------
A---------------------------------
F--0-6-0-5-0-4-0-2----------------
C------------------2~--2~-2~-2~---
G---------------------------------
C---------------------------------

D---------------------------------
A---------------------------------
F--0-6-0-5-0-4-0-2----------------
C------------------4~--4~-4~-4~---
G---------------------------------
C---------------------------------


[Chorus]:


D-------------------------------------------------------
A-------------------------------------------------------
F-------------------------------------------------------
C--9-9-9--7-7--4--4-4-4-4-4--4-4-4--7-7--9--9-9-9-9-9---
G--9-9-9--7-7--4--4-4-4-4-4--4-4-4--7-7--9--9-9-9-9-9---
C--9-9-9--7-7--4--4-4-4-4-4--4-4-4--7-7--9--9-9-9-9-9---


D----------------------------------------------------------------------
A----------------------------------------------------------------------
F----------------------------------------------------------------------
C--9-9-9--7-7--4--4-4-4-4-4--4-4-4--7-7--9--9-9-9-9-9--9-9-9--7-7--4---
G--9-9-9--7-7--4--4-4-4-4-4--4-4-4--7-7--9--9-9-9-9-9--9-9-9--7-7--4---
C--9-9-9--7-7--4--4-4-4-4-4--4-4-4--7-7--9--9-9-9-9-9--9-9-9--7-7--4---


D-----------------------------------
A-----------------------------------
F--0-6-0-5-0-4-0-2------------------
C------------------4~--4~-4~-4~-/---
G-----------------------------------
C-----------------------------------



[Verse]:


D-------------------------------------------------------------------
A-------------------------------------------------------------------
F-------------------------------------------------------------------
C--4-4--4--4-4--4--4-4--4--4-4--4--4-4--4--4-4--4--4-4--4--4-4--4---
G--4-4--4--4-4--4--4-4--4--4-4--4--4-4--4--4-4--4--4-4--4--4-4--4---
C--4-4--4--4-4--4--4-4--4--4-4--4--4-4--4--4-4--4--4-4--4--4-4--4---
   . .     . .     . .     . .     . .     . .     . .     . .

D---------------------------------------------------
A---------------------------------------------------
F---------------------------------------------------
C--2-2--2--2-2--2--2-2--2--2-2--2--4-4--4--4-4--4---
G--2-2--2--2-2--2--2-2--2--2-2--2--4-4--4--4-4--4---
C--2-2--2--2-2--2--2-2--2--2-2--2--4-4--4--4-4--4---
   . .     . .     . .     . .     . .     . .


[Pre-Chorus]:


D---------------------------------
A---------------------------------
F--0-6-0-5-0-4-0-2----------------
C------------------4~--4~-4~-4~---
G---------------------------------
C--------------------------------- (x2)

D---------------------------------
A---------------------------------
F--0-6-0-5-0-4-0-2----------------
C------------------2~--2~-2~-2~---
G---------------------------------
C---------------------------------

D---------------------------------
A---------------------------------
F--0-6-0-5-0-4-0-2----------------
C------------------4~--4~-4~-4~---
G---------------------------------
C---------------------------------


[Chorus]:


D-------------------------------------------------------
A-------------------------------------------------------
F-------------------------------------------------------
C--9-9-9--7-7--4--4-4-4-4-4--4-4-4--7-7--9--9-9-9-9-9---
G--9-9-9--7-7--4--4-4-4-4-4--4-4-4--7-7--9--9-9-9-9-9---
C--9-9-9--7-7--4--4-4-4-4-4--4-4-4--7-7--9--9-9-9-9-9---


D----------------------------------------------------------------------
A----------------------------------------------------------------------
F----------------------------------------------------------------------
C--9-9-9--7-7--4--4-4-4-4-4--4-4-4--7-7--9--9-9-9-9-9--9-9-9--7-7--4---
G--9-9-9--7-7--4--4-4-4-4-4--4-4-4--7-7--9--9-9-9-9-9--9-9-9--7-7--4---
C--9-9-9--7-7--4--4-4-4-4-4--4-4-4--7-7--9--9-9-9-9-9--9-9-9--7-7--4---


D---------------------------------
A---------------------------------
F--0-6-0-5-0-4-0-2----------------
C------------------4~--4~-4~-4~---
G---------------------------------
C---------------------------------


[Solo]:


D-----------------------------------------------------------
A-----------------------------------------------------------
F--9b--9b-9b-9b--7~---9~---9h11-11---9h11--9h11-9h11-9h11---
C-----------------------------------------------------------
G-----------------------------------------------------------
C-----------------------------------------------------------


D------------------------------------------
A--10----------10---------10---------------
F-----11-9--------11-9-------11-9----11~---
C----------11----------11---------11-------
G------------------------------------------
C------------------------------------------

D--12h14-14--12h14-14--12h14-14--12h14-14--12h14-14--14b-14b-14b-14b-14b-14b-14b-14b-14b---
A------------------------------------------------------------------------------------------
F------------------------------------------------------------------------------------------
C------------------------------------------------------------------------------------------
G------------------------------------------------------------------------------------------
C------------------------------------------------------------------------------------------


[Verse]:


D-------------------------------------------------------------------
A-------------------------------------------------------------------
F-------------------------------------------------------------------
C--4-4--4--4-4--4--4-4--4--4-4--4--4-4--4--4-4--4--4-4--4--4-4--4---
G--4-4--4--4-4--4--4-4--4--4-4--4--4-4--4--4-4--4--4-4--4--4-4--4---
C--4-4--4--4-4--4--4-4--4--4-4--4--4-4--4--4-4--4--4-4--4--4-4--4---
   . .     . .     . .     . .     . .     . .     . .     . .

D---------------------------------------------------
A---------------------------------------------------
F---------------------------------------------------
C--2-2--2--2-2--2--2-2--2--2-2--2--4-4--4--4-4--4---
G--2-2--2--2-2--2--2-2--2--2-2--2--4-4--4--4-4--4---
C--2-2--2--2-2--2--2-2--2--2-2--2--4-4--4--4-4--4---
   . .     . .     . .     . .     . .     . .


[Pre-Chorus]:


D---------------------------------
A---------------------------------
F--0-6-0-5-0-4-0-2----------------
C------------------4~--4~-4~-4~---
G---------------------------------
C--------------------------------- (x2)

D---------------------------------
A---------------------------------
F--0-6-0-5-0-4-0-2----------------
C------------------2~--2~-2~-2~---
G---------------------------------
C---------------------------------

D---------------------------------
A---------------------------------
F--0-6-0-5-0-4-0-2----------------
C------------------4~--4~-4~-4~---
G---------------------------------
C---------------------------------


[Chorus]:


D-------------------------------------------------------
A-------------------------------------------------------
F-------------------------------------------------------
C--9-9-9--7-7--4--4-4-4-4-4--4-4-4--7-7--9--9-9-9-9-9---
G--9-9-9--7-7--4--4-4-4-4-4--4-4-4--7-7--9--9-9-9-9-9---
C--9-9-9--7-7--4--4-4-4-4-4--4-4-4--7-7--9--9-9-9-9-9---


D----------------------------------------------------------------------
A----------------------------------------------------------------------
F----------------------------------------------------------------------
C--9-9-9--7-7--4--4-4-4-4-4--4-4-4--7-7--9--9-9-9-9-9--9-9-9--7-7--4---
G--9-9-9--7-7--4--4-4-4-4-4--4-4-4--7-7--9--9-9-9-9-9--9-9-9--7-7--4---
C--9-9-9--7-7--4--4-4-4-4-4--4-4-4--7-7--9--9-9-9-9-9--9-9-9--7-7--4---


D-----------------------------------
A-----------------------------------
F--0-6-0-5-0-4-0-2------------------
C------------------4~--4~-4~-4~-/---
G-----------------------------------
C-----------------------------------


[Outro]:


D----------------------------------------------------
A----------------------------------------------------
F----------------------------------------------------
C--2-2-2-2-2-2-2-2-2-2-2-2-0-0-0-0-0-2-2-2-2-2-2-2---
G--2-2-2-2-2-2-2-2-2-2-2-2-0-0-0-0-0-2-2-2-2-2-2-2---
C--2-2-2-2-2-2-2-2-2-2-2-2-0-0-0-0-0-2-2-2-2-2-2-2---

D--------------------------------------------------------------------
A--------------------------------------------------------------------
F--------------------------------------------------------------------
C--4-4-4-4-4-4-4-4-4-4-4-4-4-4-4-4-4-4-4-4-4-4-4-4-4-4-4-4-4-4-4-4---
G--4-4-4-4-4-4-4-4-4-4-4-4-4-4-4-4-4-4-4-4-4-4-4-4-4-4-4-4-4-4-4-4---
C--4-4-4-4-4-4-4-4-4-4-4-4-4-4-4-4-4-4-4-4-4-4-4-4-4-4-4-4-4-4-4-4---

D------------------------------------------------------
A------------------------------------------------------
F------------------------------------------------------
C--2-2-2-2-2-2-2-2-2-2-2-2-0-0-0-0-0-2-2-2-2-2-2-2-4---
G--2-2-2-2-2-2-2-2-2-2-2-2-0-0-0-0-0-2-2-2-2-2-2-2-4---
C--2-2-2-2-2-2-2-2-2-2-2-2-0-0-0-0-0-2-2-2-2-2-2-2-4---







4. I Love To Say Fuck (2007)


[Intro]:

D------------------------------
A------------------------------
F------------------------------
C--4-4-4-4-4-4-4-4-4-4-4-4-4---
G--4-4-4-4-4-4-4-4-4-4-4-4-4---
C--4-4-4-4-4-4-4-4-4-4-4-4-4---
   . . . . . . . . . . . . .


[Verse]:


D------------------------------------
A------------------------------------
F------------------------------------
C--4-4-4-4--7-7-7-7--4-4--x-x--x-x---
G--4-4-4-4--7-7-7-7--4-4--x-x--x-x---
C--4-4-4-4--7-7-7-7--4-4--x-x--x-x--- (x4)



D--------------------------
A--------------------------
F--------------------------
C--4-4-4-4--7-7-7-7--4-4---
G--4-4-4-4--7-7-7-7--4-4---
C--4-4-4-4--7-7-7-7--4-4--- (x8)
   . . . .  . . . .  . .

[Pre-Chorus]:


D-----------------------------------------
A-----------------------------------------
F-----------------------------------------
C--4-4-4-4--7-7-7-7--4-4--6-6--7-7--8-8---
G--4-4-4-4--7-7-7-7--4-4--6-6--7-7--8-8---
C--4-4-4-4--7-7-7-7--4-4--6-6--7-7--8-8---
   . . . .  . . . .  . .  . .  . .  . . 


[Chorus]:


D-----------------------------------------------------------------------------------------------------
A-----------------------------------------------------------------------------------------------------
F-----------------------------------------------------------------------------------------------------
C--9--9-9-9-9-9--9-9--9--4--4-4-4-4-4--4-4--4--9--9-9-9-9-9--9-9--9-9--11--11-11-11-11-11--11-11-11---
G--9--9-9-9-9-9--9-9--9--4--4-4-4-4-4--4-4--4--9--9-9-9-9-9--9-9--9-9--11--11-11-11-11-11--11-11-11---
C--9--9-9-9-9-9--9-9--9--4--4-4-4-4-4--4-4--4--9--9-9-9-9-9--9-9--9-9--11--11-11-11-11-11--11-11-11---

D------------------------------------
A------------------------------------
F------------------------------------
C--4-4-4-4--7-7-7-7--4-4--x-x--x-x---
G--4-4-4-4--7-7-7-7--4-4--x-x--x-x---
C--4-4-4-4--7-7-7-7--4-4--x-x--x-x--- (x4)



[Verse]:


D--------------------------
A--------------------------
F--------------------------
C--4-4-4-4--7-7-7-7--4-4---
G--4-4-4-4--7-7-7-7--4-4---
C--4-4-4-4--7-7-7-7--4-4--- (x8)
   . . . .  . . . .  . .


[Pre-Chorus]:


D-----------------------------------------
A-----------------------------------------
F-----------------------------------------
C--4-4-4-4--7-7-7-7--4-4--6-6--7-7--8-8---
G--4-4-4-4--7-7-7-7--4-4--6-6--7-7--8-8---
C--4-4-4-4--7-7-7-7--4-4--6-6--7-7--8-8---
   . . . .  . . . .  . .  . .  . .  . . 


[Chorus]:


D-----------------------------------------------------------------------------------------------------
A-----------------------------------------------------------------------------------------------------
F-----------------------------------------------------------------------------------------------------
C--9--9-9-9-9-9--9-9--9--4--4-4-4-4-4--4-4--4--9--9-9-9-9-9--9-9--9-9--11--11-11-11-11-11--11-11-11---
G--9--9-9-9-9-9--9-9--9--4--4-4-4-4-4--4-4--4--9--9-9-9-9-9--9-9--9-9--11--11-11-11-11-11--11-11-11---
C--9--9-9-9-9-9--9-9--9--4--4-4-4-4-4--4-4--4--9--9-9-9-9-9--9-9--9-9--11--11-11-11-11-11--11-11-11---

D------------------------------------
A------------------------------------
F------------------------------------
C--4-4-4-4--7-7-7-7--4-4--x-x--x-x---
G--4-4-4-4--7-7-7-7--4-4--x-x--x-x---
C--4-4-4-4--7-7-7-7--4-4--x-x--x-x--- (x4)



[Bridge]:


D-------------------------------------
A-------------------------------------
F-------------------------------------
C--4-4-4-4--7-7-7-7--4-4-4-4--4-4-4---
G--4-4-4-4--7-7-7-7--4-4-4-4--4-4-4---
C--4-4-4-4--7-7-7-7--4-4-4-4--4-4-4--- (x4)

D------------------------------------
A------------------------------------
F------------------------------------
C--4---------4---------4---------4---
G--4---------4---------4---------4---
C--4---------4---------4---------4---


[Verse]:
(After Bass)

D-----------------------------
A-----------------------------
F-----------------------------
C--/--4-4-4-4--7-7-7-7--4-4---
G--/--4-4-4-4--7-7-7-7--4-4---
C--/--4-4-4-4--7-7-7-7--4-4---
      . . . .  . . . .  . .

D---------------------------
A---------------------------
F---------------------------
C---4-4-4-4--7-7-7-7--4-4---
G---4-4-4-4--7-7-7-7--4-4---
C---4-4-4-4--7-7-7-7--4-4--- (x3)
    . . . .  . . . .  . .

D-----------------------------
A-----------------------------
F-----------------------------
C--/--4-4-4-4--7-7-7-7--4-4---
G--/--4-4-4-4--7-7-7-7--4-4---
C--/--4-4-4-4--7-7-7-7--4-4---
      . . . .  . . . .  . .

D---------------------------
A---------------------------
F---------------------------
C---4-4-4-4--7-7-7-7--4-4---
G---4-4-4-4--7-7-7-7--4-4---
C---4-4-4-4--7-7-7-7--4-4--- (x3)
    . . . .  . . . .  . .


[Pre-Chorus]:


D-----------------------------------------
A-----------------------------------------
F-----------------------------------------
C--4-4-4-4--7-7-7-7--4-4--6-6--7-7--8-8---
G--4-4-4-4--7-7-7-7--4-4--6-6--7-7--8-8---
C--4-4-4-4--7-7-7-7--4-4--6-6--7-7--8-8---
   . . . .  . . . .  . .  . .  . .  . . 


[Chorus]:


D-----------------------------------------------------------------------------------------------------
A-----------------------------------------------------------------------------------------------------
F-----------------------------------------------------------------------------------------------------
C--9--9-9-9-9-9--9-9--9--4--4-4-4-4-4--4-4--4--9--9-9-9-9-9--9-9--9-9--11--11-11-11-11-11--11-11-11---
G--9--9-9-9-9-9--9-9--9--4--4-4-4-4-4--4-4--4--9--9-9-9-9-9--9-9--9-9--11--11-11-11-11-11--11-11-11---
C--9--9-9-9-9-9--9-9--9--4--4-4-4-4-4--4-4--4--9--9-9-9-9-9--9-9--9-9--11--11-11-11-11-11--11-11-11---

D------------------------------------
A------------------------------------
F------------------------------------
C--4-4-4-4--7-7-7-7--4-4--x-x--x-x---
G--4-4-4-4--7-7-7-7--4-4--x-x--x-x---
C--4-4-4-4--7-7-7-7--4-4--x-x--x-x--- (x4)


[Outro]:


D-------------------------------------
A-------------------------------------
F-------------------------------------
C--4-4-4-4--7-7-7-7--4-4-4-4--4-4-4---
G--4-4-4-4--7-7-7-7--4-4-4-4--4-4-4---
C--4-4-4-4--7-7-7-7--4-4-4-4--4-4-4--- (x4)


D-----------------
A-----------------
F-----------------
C--4-4-4--7-9-7---
G--4-4-4--7-9-7---
C--4-4-4--7-9-7--- (x15)

D-----------------------
A-----------------------
F-----------------------
C--4-4-4--7-9--7----4---
G--4-4-4--7-9--7----4---
C--4-4-4--7-9--7----4---







5. My Demise B.C



[Intro]:


D--0---0--0--0-0-0--0-0--0---0--0--0-0-0--0-0-----------------------------------------------------
A--1---1--1--1-1-1--1-1--1---1--1--1-1-1--1-1-----------------------------------------------------
F--2---2--2--2-2-2--2-2--0---0--0--0-0-0--0-0-----------------------------------------------------
C--2---2--2--2-2-2--2-2--2---2--2--2-2-2--2-2---3---3--3--3-3-3--3/5--5-5--2---2--2--2-2-2--2-2---
G--0---0--0--0-0-0--0-0--3---3--3--3-3-3--3-3---3---3--3--3-3-3--3/5--5-5--2---2--2--2-2-2--2-2---
C-----------------------------------------------3---3--3--3-3-3--3/5--5-5--2---2--2--2-2-2--2-2---


[Verse]:


D--0---0--0--0-0-0--0-0--0---0--0--0-0-0--0-0-----------------------------------------------------
A--1---1--1--1-1-1--1-1--1---1--1--1-1-1--1-1-----------------------------------------------------
F--2---2--2--2-2-2--2-2--0---0--0--0-0-0--0-0-----------------------------------------------------
C--2---2--2--2-2-2--2-2--2---2--2--2-2-2--2-2---3---3--3--3-3-3--3/5--5-5--2---2--2--2-2-2--2-2---
G--0---0--0--0-0-0--0-0--3---3--3--3-3-3--3-3---3---3--3--3-3-3--3/5--5-5--2---2--2--2-2-2--2-2---
C-----------------------------------------------3---3--3--3-3-3--3/5--5-5--2---2--2--2-2-2--2-2--- (x2)


[Pre-Chorus]:


D-----------------------------------------------------------------------------------
A-----------------------------------------------------------------------------------
F-----------------------------------------------------------------------------------
C--3---3--3--3-3-3--3/5--5-5--2---2--2--2-2-2--2-2---3---3--3--3-3-3--3/5--5-5--2---
G--3---3--3--3-3-3--3/5--5-5--2---2--2--2-2-2--2-2---3---3--3--3-3-3--3/5--5-5--2---
C--3---3--3--3-3-3--3/5--5-5--2---2--2--2-2-2--2-2---3---3--3--3-3-3--3/5--5-5--2---


[Chorus]:


D-------------------------------------------------------------------------------------------
A-------------------------------------------------------------------------------------------
F---5--5--5-5-5--5--5-5-------------------------5--5--5-5-5--5--5-5-------------------------
C---5--5--5-5-5--5--5-5---3--3--3-3-3--3--3-3---5--5--5-5-5--5--5-5---3--3--3-3-3--3--3-3---
G---3--3--3-3-3--3--3-3---3--3--3-3-3--3--3-3---3--3--3-3-3--3--3-3---3--3--3-3-3--3--3-3---
C-------------------------3--3--3-3-3--3--3-3-------------------------3--3--3-3-3--3--3-3---


D-----------------------------------------------------------------------------------------------
A-----------------------------------------------------------------------------------------------
F--5--5--5-5-5--5--5-5----------------------------------------------------5--5--5-5-5--5--5-5---
C--5--5--5-5-5--5--5-5---3--3--3-3-3--3--3-3---5---5---5-5--3---3---3-3---5--5--5-5-5--5--5-5---
G--3--3--3-3-3--3--3-3---3--3--3-3-3--3--3-3---5---5---5-5--3---3---3-3---3--3--3-3-3--3--3-3---
C------------------------3--3--3-3-3--3--3-3---5---5---5-5--3---3---3-3-------------------------


D-----------------------------------------------------
A-----------------------------------------------------
F-----------------------------------------------------
C--5---5---5-5--3---3---3-3--2--2--2--2--2--2-2-2-2---
G--5---5---5-5--3---3---3-3--2--2--2--2--2--2-2-2-2---
C--5---5---5-5--3---3---3-3--2--2--2--2--2--2-2-2-2---



[Verse]:



D--0---0--0--0-0-0--0-0--0---0--0--0-0-0--0-0-----------------------------------------------------
A--1---1--1--1-1-1--1-1--1---1--1--1-1-1--1-1-----------------------------------------------------
F--2---2--2--2-2-2--2-2--0---0--0--0-0-0--0-0-----------------------------------------------------
C--2---2--2--2-2-2--2-2--2---2--2--2-2-2--2-2---3---3--3--3-3-3--3/5--5-5--2---2--2--2-2-2--2-2---
G--0---0--0--0-0-0--0-0--3---3--3--3-3-3--3-3---3---3--3--3-3-3--3/5--5-5--2---2--2--2-2-2--2-2---
C-----------------------------------------------3---3--3--3-3-3--3/5--5-5--2---2--2--2-2-2--2-2--- (x2)


[Pre-Chorus]:


D-----------------------------------------------------------------------------------
A-----------------------------------------------------------------------------------
F-----------------------------------------------------------------------------------
C--3---3--3--3-3-3--3/5--5-5--2---2--2--2-2-2--2-2---3---3--3--3-3-3--3/5--5-5--2---
G--3---3--3--3-3-3--3/5--5-5--2---2--2--2-2-2--2-2---3---3--3--3-3-3--3/5--5-5--2---
C--3---3--3--3-3-3--3/5--5-5--2---2--2--2-2-2--2-2---3---3--3--3-3-3--3/5--5-5--2---



[Chorus]:


D------------------------------------------------------------------------------------------
A------------------------------------------------------------------------------------------
F--5--5--5-5-5--5--5-5-------------------------5--5--5-5-5--5--5-5-------------------------
C--5--5--5-5-5--5--5-5---3--3--3-3-3--3--3-3---5--5--5-5-5--5--5-5---3--3--3-3-3--3--3-3---
G--3--3--3-3-3--3--3-3---3--3--3-3-3--3--3-3---3--3--3-3-3--3--3-3---3--3--3-3-3--3--3-3---
C------------------------3--3--3-3-3--3--3-3-------------------------3--3--3-3-3--3--3-3---


D-----------------------------------------------------------------------------------------------
A-----------------------------------------------------------------------------------------------
F--5--5--5-5-5--5--5-5----------------------------------------------------5--5--5-5-5--5--5-5---
C--5--5--5-5-5--5--5-5---3--3--3-3-3--3--3-3---5---5---5-5--3---3---3-3---5--5--5-5-5--5--5-5---
G--3--3--3-3-3--3--3-3---3--3--3-3-3--3--3-3---5---5---5-5--3---3---3-3---3--3--3-3-3--3--3-3---
C------------------------3--3--3-3-3--3--3-3---5---5---5-5--3---3---3-3-------------------------


D-----------------------------------------------------
A-----------------------------------------------------
F-----------------------------------------------------
C--5---5---5-5--3---3---3-3--2--2--2--2--2--2-2-2-2---
G--5---5---5-5--3---3---3-3--2--2--2--2--2--2-2-2-2---
C--5---5---5-5--3---3---3-3--2--2--2--2--2--2-2-2-2---



[Bridge]:


D-------------------------------------------------------------------------------------------
A-------------------------------------------------------------------------------------------
F---6--6--6-6-6--6--6-6-------------------------6--6--6-6-6--6--6-6-------------------------
C---6--6--6-6-6--6--6-6---4--4--4-4-4--4--4-4---6--6--6-6-6--6--6-6---4--4--4-4-4--4--4-4---
G---4--4--4-4-4--4--4-4---4--4--4-4-4--4--4-4---4--4--4-4-4--4--4-4---4--4--4-4-4--4--4-4---
C-------------------------4--4--4-4-4--4--4-4-------------------------4--4--4-4-4--4--4-4---


D---------------------------------------------------------------------------------
A---------------------------------------------------------------------------------
F--6--6--6-6-6--6--6-6------------------------------------------------------------
C--6--6--6-6-6--6--6-6---4--4--4-4---6--6-6--4--4-4--3--3--3--3--3--3--3--3-3-2---
G--4--4--4-4-4--4--4-4---4--4--4-4---6--6-6--4--4-4--3--3--3--3--3--3--3--3-3-2---
C------------------------4--4--4-4---6--6-6--4--4-4--3--3--3--3--3--3--3--3-3-2---



[Chorus]:


D---------------------------------------------------
A---------------------------------------------------
F--5---5-5-----------5---5-5------------------------
C--5---5-5-3----3-3--5---5-5-3----3-3-3-3-3-3-3-3---
G--3---3-3-3----3-3--3---3-3-3----3-3-3-3-3-3-3-3---
C----------3----3-3----------3----3-3-3-3-3-3-3-3---



D--------------------------------------------------------------------------------------------
A--------------------------------------------------------------------------------------------
F--5--5--5-5-5--5--5-5-------------------------5--5--5-5-5--5--5-5---------------------------
C--5--5--5-5-5--5--5-5---3--3--3-3-3--3--3-3---5--5--5-5-5--5--5-5---3--3--3-3-3--3--3-3-----
G--3--3--3-3-3--3--3-3---3--3--3-3-3--3--3-3---3--3--3-3-3--3--3-3---3--3--3-3-3--3--3-3-----
C------------------------3--3--3-3-3--3--3-3-------------------------3--3--3-3-3--3--3-3-----


D-----------------------------------------------------------------------------------------------
A-----------------------------------------------------------------------------------------------
F--5--5--5-5-5--5--5-5----------------------------------------------------5--5--5-5-5--5--5-5---
C--5--5--5-5-5--5--5-5---3--3--3-3-3--3--3-3---5---5---5-5--3---3---3-3---5--5--5-5-5--5--5-5---
G--3--3--3-3-3--3--3-3---3--3--3-3-3--3--3-3---5---5---5-5--3---3---3-3---3--3--3-3-3--3--3-3---
C------------------------3--3--3-3-3--3--3-3---5---5---5-5--3---3---3-3-------------------------


D------------------------------------------------------------------------------------------------
A------------------------------------------------------------------------------------------------
F------------------------------------------------------------------------------------------------
C--5---5---5-5--3---3---3-3---2--2--2-2-2--2--2---5---5---5-5--3---3---3-3---2--2--2-2-2--2--2---
G--5---5---5-5--3---3---3-3---2--2--2-2-2--2--2---5---5---5-5--3---3---3-3---2--2--2-2-2--2--2---
C--5---5---5-5--3---3---3-3---2--2--2-2-2--2--2---5---5---5-5--3---3---3-3---2--2--2-2-2--2--2---


D---------------------------------------------------------
A---------------------------------------------------------
F---------------------------------------------------------
C--5---5---5-5--3---3---3-3---2--2--2--2--2--2--2--2--2---
G--5---5---5-5--3---3---3-3---2--2--2--2--2--2--2--2--2---
C--5---5---5-5--3---3---3-3---2--2--2--2--2--2--2--2--2---



[Outro]:


D--------------------------------------------------------------------------------------------
A--------------------------------------------------------------------------------------------
F--5--5--5-5-5--5--5-5-------------------------5--5--5-5-5--5--5-5---------------------------
C--5--5--5-5-5--5--5-5---3--3--3-3-3--3--3-3---5--5--5-5-5--5--5-5---3--3--3-3-3--3--3-3-----
G--3--3--3-3-3--3--3-3---3--3--3-3-3--3--3-3---3--3--3-3-3--3--3-3---3--3--3-3-3--3--3-3-----
C------------------------3--3--3-3-3--3--3-3-------------------------3--3--3-3-3--3--3-3-----


D------------------------------------------------------------------------
A------------------------------------------------------------------------
F--5--5--5-5-5--5--5-5-------------------------5--5--5-5-5--5--5-5-------
C--5--5--5-5-5--5--5-5---3--3--3-3-3--3--3-3---5--5--5-5-5--5--5-5---3---
G--3--3--3-3-3--3--3-3---3--3--3-3-3--3--3-3---3--3--3-3-3--3--3-3---3---
C------------------------3--3--3-3-3--3--3-3-------------------------3---






6. Skeletons A.D



[Intro]:

D-------------------------------------------------------------------
A-------------------------------------------------------------------
F----------------------------------8--8--8--8-8-8-------------------
C--3--3--3--3-3-3--6--6--6--6-6-6--8--8--8--8-8-8--8--8--8--8-8-8---
G--3--3--3--3-3-3--6--6--6--6-6-6--6--6--6--6-6-6--8--8--8--8-8-8---
C--3--3--3--3-3-3--6--6--6--6-6-6------------------8--8--8--8-8-8--- (x2)


[Verse]:


D-------------------------------------------------------------------
A-------------------------------------------------------------------
F----------------------------------8--8--8--8-8-8-------------------
C--3--3--3--3-3-3--6--6--6--6-6-6--8--8--8--8-8-8--8--8--8--8-8-8---
G--3--3--3--3-3-3--6--6--6--6-6-6--6--6--6--6-6-6--8--8--8--8-8-8---
C--3--3--3--3-3-3--6--6--6--6-6-6------------------8--8--8--8-8-8---


[Pre-Chorus]:


D--------------------------------------------------------
A-------------------------------------9-8-6--6---9-8-6---
F--------------------------------------------------------
C--6--6--6--6-6-6---8--8--8--8-8-8-----------------------
G--6--6--6--6-6-6---8--8--8--8-8-8-----------------------
C--6--6--6--6-6-6---8--8--8--8-8-8-----------------------


D-------------------------------------------------------------------------------------
A-------------------------------------------------------------------------------------
F-------------------------------------------------------------------------------------
C--6--6--6--6-6-6---8--8--8--8-8-8---11--11--11--11-11-11---10-10-10-10-10-10-10-10---
G--6--6--6--6-6-6---8--8--8--8-8-8---11--11--11--11-11-11---10-10-10-10-10-10-10-10---
C--6--6--6--6-6-6---8--8--8--8-8-8---11--11--11--11-11-11---10-10-10-10-10-10-10-10---


[Chorus]:


D-------------------------------------------------------------------
A-------------------------------------------------------------------
F----------------------------------8--8--8--8-8-8-------------------
C--3--3--3--3-3-3--6--6--6--6-6-6--8--8--8--8-8-8--8--8--8--8-8-8---
G--3--3--3--3-3-3--6--6--6--6-6-6--6--6--6--6-6-6--8--8--8--8-8-8---
C--3--3--3--3-3-3--6--6--6--6-6-6------------------8--8--8--8-8-8--- (x2)


D----------------------------------------------
A--9-8-6--6---9-8-6--6---9-8-6--11---9--8--6---
F----------------------------------------------
C----------------------------------------------
G----------------------------------------------
C----------------------------------------------


[Verse]:


D-------------------------------------------------------------------
A-------------------------------------------------------------------
F----------------------------------8--8--8--8-8-8-------------------
C--3--3--3--3-3-3--6--6--6--6-6-6--8--8--8--8-8-8--8--8--8--8-8-8---
G--3--3--3--3-3-3--6--6--6--6-6-6--6--6--6--6-6-6--8--8--8--8-8-8---
C--3--3--3--3-3-3--6--6--6--6-6-6------------------8--8--8--8-8-8--- (x4)


[Pre-Chorus]:


D--------------------------------------------------------
A-------------------------------------9-8-6--6---9-8-6---
F--------------------------------------------------------
C--6--6--6--6-6-6---8--8--8--8-8-8-----------------------
G--6--6--6--6-6-6---8--8--8--8-8-8-----------------------
C--6--6--6--6-6-6---8--8--8--8-8-8-----------------------


D-------------------------------------------------------------------------------------
A-------------------------------------------------------------------------------------
F-------------------------------------------------------------------------------------
C--6--6--6--6-6-6---8--8--8--8-8-8---11--11--11--11-11-11---10-10-10-10-10-10-10-10---
G--6--6--6--6-6-6---8--8--8--8-8-8---11--11--11--11-11-11---10-10-10-10-10-10-10-10---
C--6--6--6--6-6-6---8--8--8--8-8-8---11--11--11--11-11-11---10-10-10-10-10-10-10-10---


[Chorus]:


D-------------------------------------------------------------------
A-------------------------------------------------------------------
F----------------------------------8--8--8--8-8-8-------------------
C--3--3--3--3-3-3--6--6--6--6-6-6--8--8--8--8-8-8--8--8--8--8-8-8---
G--3--3--3--3-3-3--6--6--6--6-6-6--6--6--6--6-6-6--8--8--8--8-8-8---
C--3--3--3--3-3-3--6--6--6--6-6-6------------------8--8--8--8-8-8--- (x2)


[Bridge]:


D-------------------------------------------------------------------
A-------------------------------------------------------------------
F------------------8--8--8--8-8-8-----------------------------------
C--6--6--6--6-6-6--8--8--8--8-8-8--8--8--8--8-8-8--3--3--3--3-3-3---
G--6--6--6--6-6-6--6--6--6--6-6-6--8--8--8--8-8-8--3--3--3--3-3-3---
C--6--6--6--6-6-6------------------8--8--8--8-8-8--3--3--3--3-3-3---


D-------------------------------------------------------------------------------------
A-------------------------------------------------------------------------------------
F-------------------------------------------------------------------------------------
C--6--6--6--6-6-6---8--8--8--8-8-8---11--11--11--11-11-11---10-10-10-10-10-10-10-10---
G--6--6--6--6-6-6---8--8--8--8-8-8---11--11--11--11-11-11---10-10-10-10-10-10-10-10---
C--6--6--6--6-6-6---8--8--8--8-8-8---11--11--11--11-11-11---10-10-10-10-10-10-10-10---


[Solo]:


D-----------------------------------------------------------
A--6--6--6--6--9--9--9--9--11--11--11--11--11--11--11--11---
F-----------------------------------------------------------
C-----------------------------------------------------------
G-----------------------------------------------------------
C----------------------------------------------------------- (x2)


[Pre-Chorus]:


D--------------------------------------------------------
A-------------------------------------9-8-6--6---9-8-6---
F--------------------------------------------------------
C--6--6--6--6-6-6---8--8--8--8-8-8-----------------------
G--6--6--6--6-6-6---8--8--8--8-8-8-----------------------
C--6--6--6--6-6-6---8--8--8--8-8-8-----------------------


D-------------------------------------------------------------------------------------
A-------------------------------------------------------------------------------------
F-------------------------------------------------------------------------------------
C--6--6--6--6-6-6---8--8--8--8-8-8---11--11--11--11-11-11---10-10-10-10-10-10-10-10---
G--6--6--6--6-6-6---8--8--8--8-8-8---11--11--11--11-11-11---10-10-10-10-10-10-10-10---
C--6--6--6--6-6-6---8--8--8--8-8-8---11--11--11--11-11-11---10-10-10-10-10-10-10-10---


[Chorus]:


D------------------------------------
A------------------------------------
F----------------8--8----------------
C--3--3---6--6---8--8---8--8----8/---
G--3--3---6--6---6--6---8--8----8/---
C--3--3---6--6----------8--8----8/---


D-------------------------------------------------------------------
A-------------------------------------------------------------------
F----------------------------------8--8--8--8-8-8-------------------
C--3--3--3--3-3-3--6--6--6--6-6-6--8--8--8--8-8-8--8--8--8--8-8-8---
G--3--3--3--3-3-3--6--6--6--6-6-6--6--6--6--6-6-6--8--8--8--8-8-8---
C--3--3--3--3-3-3--6--6--6--6-6-6------------------8--8--8--8-8-8--- (x3)


************************************

. - Palm Mute
/ - Slide Up
~ - Vibrato
h - Hammer On
b - Bend

************************************

            
            
Suggest correction
Creating personal tab
Creating personal tab
You can edit any tab online and save it as your Personal.

You can edit, replace or remove any tab part or add personal notes – all changes will be seen only by you.

Personal tabs can be accessed anytime from any device, even offline.
Learn more »
Give kudos to tab author, rate the tab!
1 2 3 4 5
comments
print report bad tab
1 comment total.
0 reply
toad.mushroom.9 10 Jul 05, 2016 06:08 AM

great tab :) ther's missing a (x4) for the first verse of Skeleton A.D. :)

guest
You may want to rate the tab now too:
select rating
Wanna post a correction for this tab? Suggest correction