Oops, an error
Loading. Please wait.

Bullet Named Christ Tab

version 3
version 3

Whole song

Interactive

97 views 1 this week
no commentswrite comment
1 2 3 4 5
please rate
add to favorites
launch autoscroll
font size
0
reset
how to read this tab
guitar tuner
Tab Pro tools
  • play this tab
  • loop segment
  • change instrument
  • show fretboard
  • metronome
Autoscroll
slow
fast
+/-
esc
set tempo
stop
Contributor
#----------------------------------PLEASE NOTE---------------------------------#
#This file is the author's own work and represents their interpretation of the #
#song. You may only use this file for private study, scholarship, or research. #
#------------------------------------------------------------------------------#

A BULLET NAMED CHRIST
As recorded by Wednesday 13
(From the 2005 Album TRANSYLVANIA 90210)

Transcribed by Woutjinho
        

Words and Music by Wednesday 13
Arranged by Woutjinho

Gtr I (C G C F A D) - 'Piano'
Gtr II (C G C F A D) - 'Choirs'
Gtr III (C G C F A D) - 'String'

 Intro                       Verse
  Q=87
  N.C.                        B        B  A
 4/4
  Gtr II                  Gtr I
                >
   W           +W              H.       E  E
|-19--------|-(19)--------||--19-------19-17-|
|-----------|-------------||o----------------|
|-----------|-------------||--16-------16-14-|
|-----------|-------------||-----------------|
|-----------|-------------||o-14-------14-12-|
|-----------|-------------||-----------------|


  G     A       B        B  A    G     A
   H     H       H.       E  E    H     H     4x
|-15----17----|-19-------19-17-|-15----17-----||
|-------------|----------------|-------------o||
|-12----14----|-16-------16-14-|-12----14-----||
|-------------|----------------|--------------||
|-10----12----|-14-------14-12-|-10----12----o||
|-------------|----------------|--------------||


   Chorus
    B      A  B      A    C      B  A      B
     Q   E  E  Q   E  E    Q   E  E  Q   E  E
||--19--19-17-19--19-17-|-20--20-19-17--17-19-|
||o---------------------|---------------------|
||--16--16-14-16--16-14-|-17--17-16-14--14-16-|
||----------------------|---------------------|
||o-14--14-12-14--14-12-|-15--15-14-12--12-14-|
||----------------------|---------------------|
|
|   Gtr III
|    W                     H         H
||--19------------------|-20--------17--------|
||o---------------------|---------------------|
||----------------------|---------------------|
||----------------------|---------------------|
||o---------------------|---------------------|
||----------------------|---------------------|


         A  B      A    C         A      B
   Q   E  E  Q   E  E    Q   E  E  Q   E  E
|-19--19-17-19--19-17-|-20--20-19-17--17-19---||
|---------------------|----------------------o||
|-16--16-14-16--16-14-|-17--17-16-14--14-16---||
|---------------------|-----------------------||
|-14--14-12-14--14-12-|-15--15-14-12--12-14--o||
|---------------------|-----------------------||
|
|  W                     H         H
|-19------------------|-20--------17----------||
|---------------------|----------------------o||
|---------------------|-----------------------||
|---------------------|-----------------------||
|---------------------|----------------------o||
|---------------------|-----------------------||


   Verse
    B        B  A    G     A       B        B  A    G     A
    Gtr I
     H.       E  E    H     H       H.       E  E    H     H
||--19-------19-17-|-15----17----|-19-------19-17-|-15----17-----||
||o----------------|-------------|----------------|-------------o||
||--16-------16-14-|-12----14----|-16-------16-14-|-12----14-----||
||-----------------|-------------|----------------|--------------||
||o-14-------14-12-|-10----12----|-14-------14-12-|-10----12----o||
||-----------------|-------------|----------------|--------------||


   Chorus
    B      A  B   B  A    C      B  A   A  B
     Q   E  E  Q   E  E    Q   E  E  Q   E  E
||--19--19-17-19--19-17-|-20--20-19-17--17-19-|
||o---------------------|---------------------|
||--16--16-14-16--16-14-|-17--17-16-14--14-16-|
||----------------------|---------------------|
||o-14--14-12-14--14-12-|-15--15-14-12--12-14-|
||----------------------|---------------------|
|
|   Gtr III
|    W                     H         H
||--19------------------|-20--------17--------|
||o---------------------|---------------------|
||----------------------|---------------------|
||----------------------|---------------------|
||o---------------------|---------------------|
||----------------------|---------------------|


         A  B   B  A    C      B  A   A  B
   Q   E  E  Q   E  E    Q   E  E  Q   E  E
|-19--19-17-19--19-17-|-20--20-19-17--17-19---||
|---------------------|----------------------o||
|-16--16-14-16--16-14-|-17--17-16-14--14-16---||
|---------------------|-----------------------||
|-14--14-12-14--14-12-|-15--15-14-12--12-14--o||
|---------------------|-----------------------||
|
|  W                     H         H
|-19------------------|-20--------17----------||
|---------------------|----------------------o||
|---------------------|-----------------------||
|---------------------|-----------------------||
|---------------------|----------------------o||
|---------------------|-----------------------||


   Interlude
    N.C.
    Gtrs II, III
    W          W          W          W
||-----------|----------|----------|-------||
||o----------|----------|----------|------o||
||-----------|----------|----------|-------||
||-----------|----------|----------|-------||
||o----------|----------|----------|------o||
||-----------|----------|----------|-------||


   Verse
    W          W          W          W     3x
||--7--------|-6--------|-5--------|-6-----||
||o----------|----------|----------|------o||
||-----------|----------|----------|-------||
||-----------|----------|----------|-------||
||o----------|----------|----------|------o||
||-----------|----------|----------|-------||


  B           A    G      A       B           A    G      A
  Gtr I
   H.       E  E    H      H       H.       E  E    H      H
|-19-------19-17-|-15-----17----|-19-------19-17-|-15-----17----|
|----------------|--------------|----------------|--------------|
|-16-------16-14-|-12-----14----|-16-------16-14-|-12-----14----|
|----------------|--------------|----------------|--------------|
|-14-------14-12-|-10-----12----|-14-------14-12-|-10-----12----|
|----------------|--------------|----------------|--------------|
|
| Gtr III
|  W                H      H       W                H      H
|-19-------------|-15-----17----|-19-------------|-15-----17----|
|----------------|--------------|----------------|--------------|
|----------------|--------------|----------------|--------------|
|----------------|--------------|----------------|--------------|
|----------------|--------------|----------------|--------------|
|----------------|--------------|----------------|--------------|
|
| Gtr II
|                                  >
|  W               +W             +W               +W
|--5-------------|-(5)----------|-(5)------------|-(5)----------|
|----------------|--------------|----------------|--------------|
|----------------|--------------|----------------|--------------|
|----------------|--------------|----------------|--------------|
|----------------|--------------|----------------|--------------|
|----------------|--------------|----------------|--------------|


   Outro
    B           A    G     A       B           A    G     A
    Gtr I
     H.       E  E    H     H       H.       E  E    H     H     4x
||--19-------19-17-|-15----17----|-19-------19-17-|-15----17-----||
||o----------------|-------------|----------------|-------------o||
||--16-------16-14-|-12----14----|-16-------16-14-|-12----14-----||
||-----------------|-------------|----------------|--------------||
||o-14-------14-12-|-10----12----|-14-------14-12-|-10----12----o||
||-----------------|-------------|----------------|--------------||
|
|   Gtr III
|    W                H     H       W                H     H     4x
||--19-------------|-15----17----|-19-------------|-15----17-----||
||o----------------|-------------|----------------|-------------o||
||-----------------|-------------|----------------|--------------||
||-----------------|-------------|----------------|--------------||
||o----------------|-------------|----------------|-------------o||
||-----------------|-------------|----------------|--------------||


  B           A    G     A       N.C.
   H.       E  E    H     H       W           +W
|-19-------19-17-|-15----17----|-19--------|---------|
|----------------|-------------|-----------|---------|
|-16-------16-14-|-12----14----|-16--------|-(16)----|
|----------------|-------------|-----------|---------|
|-14-------14-12-|-10----12----|-----------|---------|
|----------------|-------------|-----------|---------|
|
|  W                H     H       W           +W
|-19-------------|-15----17----|-19--------|-(19)----|
|----------------|-------------|-----------|---------|
|----------------|-------------|-----------|---------|
|----------------|-------------|-----------|---------|
|----------------|-------------|-----------|---------|
|----------------|-------------|-----------|---------|


   +W            +W            +W            +W
|-------------|-------------|-------------|---------*|
|-------------|-------------|-------------|---------*|
|-(16)--------|-(16)--------|-(16)--------|-(16)----*|
|-------------|-------------|-------------|---------*|
|-------------|-------------|-------------|---------*|
|-------------|-------------|-------------|---------*|
|
|  +W            +W            +W            +W
|-(19)--------|-(19)--------|-(19)--------|-(19)----*|
|-------------|-------------|-------------|---------*|
|-------------|-------------|-------------|---------*|
|-------------|-------------|-------------|---------*|
|-------------|-------------|-------------|---------*|
|-------------|-------------|-------------|---------*|



Duration Legend
---------------
W - whole; H - half; Q - quarter; E - 8th; S - 16th; T - 32nd; X - 64th; a - acciaccatura
+ - note tied to previous; . - note dotted; .. - note double dotted
Uncapitalized letters represent notes that are staccato (1/2 duration)
Irregular groupings are notated above the duration line
Duration letters will always appear directly above the note/fret number it represents the
duration for.  Duration letters with no fret number below them represent rests.  Multi-
bar rests are notated in the form Wxn, where n is the number of bars to rest for.  Low
melody durations appear below the staff

Tablature Legend
----------------
 h   - hammer-on
 p   - pull-off
 b   - bend
 pb  - pre-bend
 r   - bend release (if no number after the r, then release immediately)
 /\  - slide into or out of (from/to "nowhere")
 s   - legato slide
 S   - shift slide
 - natural harmonic
[n]  - artificial harmonic
n(n) - tapped harmonic
 ~   - vibrato
 tr  - trill
 T   - tap
 TP  - trem. picking
 PM  - palm muting
\n/  - tremolo bar dip; n = amount to dip
 \n  - tremolo bar down
 n/  - tremolo bar up
/n\  - tremolo bar inverted dip
 =   - hold bend; also acts as connecting device for hammers/pulls
 <> - volume swell (louder/softer)
 x   - on rhythm slash represents muted slash
 o   - on rhythm slash represents single note slash

Misc Legend
-----------
 |  - bar
||  - double bar
||o - repeat start
o|| - repeat end
*|  - double bar (ending)
 :  - bar (freetime)
 $  - Segno
 &  - Coda
Tempo markers -  = BPM(8/16=s8/s16), where s8 = swing 8ths, s16 = swing 16ths

comments
We did not receive enough feedback on this tab! Please rate:
print report bad tab
1 2 3 4 5
I want to post or [tab]
guest
You may want to rate the tab now too:
select rating
Please do not post tabs as comments. Select "correction" instead!