Oops, an error
Loading. Please wait.

Calling All Corpses Bass Tab

version 1
version 1

Whole song

173 views 1 this week
no commentswrite comment
1 2 3 4 5
please rate
add to favorites
launch autoscroll
font size
0
reset
guitar tuner
Autoscroll
slow
fast
+/-
esc
set tempo
stop
Help us to improve Ultimate-Guitar.com Take our survey!
×
Author
Difficulty
Tuning
intermediate
C G C F A D
-----------------------------------------------------------------------------
                             Calling All Corpses - Wednesday 13
-----------------------------------------------------------------------------
Tabbed by: Andu Needle
E-mail: sulfur_in_my_lungs@yahoo.com

Intro:

F|-----------------------------------------------------|
C|-----------------------------------------------------|
G|-5~--3-5~--8~-6~-5~----------------------------------|
C|-----------------------------------------------------|(x4)

F|-----------------------------------------------------|
C|-----------------------------------------------------|
G|-----------------------------------------------------|
C|-11111111-333333-0-----------------------------------|

"Calling all corpses" part:

F|-----------------------------------------------------|
C|-----------------------------------------------------|
G|-----------------------------------------------------|
C|-0--0--0---------------------------------------------|

Verse:

F|-----------------------------------------------------|
C|-----------------------------------------------------|
G|-----------------------------------------------------|
C|-0000(x7)-305~---------------------------------------|(x4)

Chorus:

F|-----------------------------------------------------|
C|-----------------------------------------------------|
G|-5~--3-5~--8~-6~-5~----------------------------------|
C|-----------------------------------------------------|(x4)

Solo:

F|-----------------------------------------------------|
C|-----------------------------------------------------|
G|-33333333-55555555-----------------------------------|
C|-------------------3333-1111-00000000----------------|(x4)

The break down:

F|-----------------------------------------------------|
C|-----------------------------------------------------|
G|-----------------------------------------------------|
C|-11111111-333333-0-----------------------------------|

"Calling all corpses" part again:

F|-----------------------------------------------------|
C|-----------------------------------------------------|
G|-----------------------------------------------------|
C|-0--0--0---------------------------------------------|

Verse 2 is like the first one!

Last chorus:

F|-----------------------------------------------------|
C|-----------------------------------------------------|
G|-5~--3-5~--8~-6~-5~----------------------------------|
C|-----------------------------------------------------|(x3)

F|-----------------------------------------------------|
C|-----------------------------------------------------|
G|-5~--3-5~--8~-6~-5535~-------------------------------|
C|-----------------------------------------------------|
Suggest correction
Give kudos to tab author, rate the tab!
1 2 3 4 5
comments
print report bad tab
guest
You may want to rate the tab now too:
select rating
Wanna post a correction for this tab? Suggest correction