Oops, an error
Loading. Please wait.

Die Sci-Fi Tab

version 1
version 1

Whole song

Interactive

372 views 6 this week
no commentswrite comment
1 2 3 4 5
please rate
add to favorites
launch autoscroll
font size
0
reset
how to read this tab
guitar tuner
Tab Pro tools
  • play this tab
  • loop segment
  • change instrument
  • show fretboard
  • metronome
×
Best way to learn
"Die Sci-fi"
Autoscroll
slow
fast
+/-
esc
set tempo
stop
Contributor
Difficulty
intermediate
Tuning:EADGBE

. = palm mute
~ = vibrato

Guitar 1 (play this over verse)

E|-7-x8---8-x8-- --10-X16--------7-x8------8-x8------3-x16------------------|

E|--------------------------------------------------------------------------|
B|--------------------------------------------------------------------------|
G|-44444444-55555555-7777777777777777-44444444-555555555--------------------|
D|-44444444-55555555-7777777777777777-44444444-555555555-5555555555555555---|
A|-22222222-33333333-5555555555555555-44444444-333333335-5555555555555555---|
E|-------------------------------------------------------3333333333333333---|
   ........ ........ ................ ........ ........  ................

E|-7-x8-----8-x8------10-X16----------7-x8-----8-x8------3-x16--------------|

E|--------------------------------------------------------------------------|
B|--------------------------------------------------------------------------|
G|-44444444-55555555-7777777777777777-44444444-555555555--------------------|
D|-44444444-55555555-7777777777777777-44444444-555555555-5555555555555555---|
A|-22222222-33333333-5555555555555555-44444444-333333335-5555555555555555---|
E|-------------------------------------------------------3333333333333333---|
   ........ ........ ................ ........ ........  ................

E|--------------------------------------------------------------------------|
B|--------------------------------------------------------------------------|
G|-44444444-55555555-7777777777777777-44444444-555555555--------------------|
D|-44444444-55555555-7777777777777777-44444444-555555555-5555555555555555---|
A|-22222222-33333333-5555555555555555-44444444-333333335-5555555555555555---|
E|-------------------------------------------------------3333333333333333---|


Chorus
E|--------------------------------------------------------------------------|
B|--------------------------------------------------------------------------|
G|--------------------------------------------------------------------------|
D|----9~-----------5~-----------5~------------6~----------8~---------10~----|
A|----7~-----------7~-----------3~------------4~----------6~---------8~-----|
E|--------------------------------------------------------------------------|


E|-7-x8-----8-x8------10-X16----------7-x8-----8-x8------3-x16--------------|

E|--------------------------------------------------------------------------|
B|--------------------------------------------------------------------------|
G|-44444444-55555555-7777777777777777-44444444-555555555--------------------|
D|-44444444-55555555-7777777777777777-44444444-555555555-5555555555555555---|
A|-22222222-33333333-5555555555555555-44444444-333333335-5555555555555555---|
E|-------------------------------------------------------3333333333333333---|
   ........ ........ ................ ........ ........  ................

E|-7-x8-----8-x8------10-X16----------7-x8-----8-x8------3-x16--------------|

E|--------------------------------------------------------------------------|
B|--------------------------------------------------------------------------|
G|-44444444-55555555-7777777777777777-44444444-555555555--------------------|
D|-44444444-55555555-7777777777777777-44444444-555555555-5555555555555555---|
A|-22222222-33333333-5555555555555555-44444444-333333335-5555555555555555---|
E|-------------------------------------------------------3333333333333333---|
   ........ ........ ................ ........ ........  ................

E|--------------------------------------------------------------------------|
B|--------------------------------------------------------------------------|
G|-44444444-55555555-7777777777777777-44444444-555555555--------------------|
D|-44444444-55555555-7777777777777777-44444444-555555555-5555555555555555---|
A|-22222222-33333333-5555555555555555-44444444-333333335-5555555555555555---|
E|-------------------------------------------------------3333333333333333---|

Chorus
E|--------------------------------------------------------------------------|
B|--------------------------------------------------------------------------|
G|--------------------------------------------------------------------------|
D|----9~-------------5~-----------5~------------6~----------8~---------10~--|
A|----7~-------------7~-----------3~------------4~----------6~---------8~---|
E|--------------------------------------------------------------------------|

solo...

Under solo

E|-------------------------------------------------------------------------|
B|-------------------------------------------------------------------------|
G|-4--------5--------7----------------4--------5---------------------------|
D|-4--------5--------7----------------4--------5---------5-----------------|
A|-22222222-3--------5----------------4--------3---------5-----------------|
E|-------------------------------------------------------3-----------------|

(repeat until solo finishes)


Chorus
E|-------------------------------------------------------------------------|
B|-------------------------------------------------------------------------|
G|-------------------------------------------------------------------------|
D|----9~-------------5~-----------5~------------6~----------8~-------10~---|
A|----7~-------------7~-----------3~------------4~----------6~-------8~----|
E|-------------------------------------------------------------------------|

E|-9-x8-----10-x8------12-X16----------9-x8-----10-x8------5-x16-----------|

E|--------------------------------------------------------------------------|
B|--------------------------------------------------------------------------|
G|-44444444-55555555-7777777777777777-44444444-555555555--------------------|
D|-44444444-55555555-7777777777777777-44444444-555555555-5555555555555555---|
A|-22222222-33333333-5555555555555555-44444444-333333335-5555555555555555---|
E|-------------------------------------------------------3333333333333333---|


I'm sorry if its wrong, i did my best. im not sure on the chorus part so dont complain. 
I cant get the solo, but im working on it.
comments
We did not receive enough feedback on this tab! Please rate:
print report bad tab
1 2 3 4 5
I want to post or [tab]
guest
You may want to rate the tab now too:
select rating
Please do not post tabs as comments. Select "correction" instead!