Oops, an error
Loading. Please wait.

Fuck You In Memory Of Bass Tab

261 views 3 this week
no commentswrite comment
1 2 3 4 5
excellent!
x 3
add to favorites
launch autoscroll
font size
0
reset
guitar tuner
Tab Pro tools
  • play this tab
  • loop segment
  • change instrument
  • show fretboard
  • metronome
Autoscroll
slow
fast
+/-
esc
set tempo
stop
Contributor
Difficulty
Tuning
intermediate
C G C F A D
----------------------------------------------------------------------------
                             Fuck You (In Memory Of...) - Wednesday 13
-----------------------------------------------------------------------------
Tabbed by: Andu Needle
E-mail: sulfur_in_my_lungs@yahoo.com

Intro:

F|----------------------------------9/12-7~---------------------------|
C|--------------------------------------------------------------------|
G|-5~-------5~-55--5~-------------------------------------------------|
C|----7~-5~-----------7~-55-44-2-0~-----------------------------------|

Not sure about that slide.

Verse:

F|--------------------------------------------------------------------|
C|--------------------------------------------------------------------|
G|-5-555-------------5-555-5-555-------------5-555--------------------|
C|-------7-777-5-555-------------7-777-5-555--------------------------|

After this, you go straight into:

F|--------------------------------------------------------------------|
C|--------------------------------------------------------------------|
G|-55555555-------------------55555555--------------------------------|
C|----------77777777-55555555-----------------------------------------|

F|--------------------------------------------------------------------|
C|--------------------------------------------------------------------|
G|-55555555-----------------------------------------------------------|
C|----------77777777-55-44-2-0~---------------------------------------|

Chorus:

F|--------------------------------------------------------------------|
C|--------------------------------------------------------------------|
G|-5555-55-----------------5555-55-5555-55-----------------5555-55----|
C|---------7777-77-5555-55-----------------7777-77-5555-55------------|

F|--------------------------------------------------------------------|
C|--------------------------------------------------------------------|
G|-5555-55-----------------5555-55-5555-55----------------------------|
C|---------7777-77-5555-55-----------------7777-77-55-44-2-0~---------|

Main riff:

F|------------------------------------------------------------9/12-7~-|
C|--------------------------------------------------------------------|
G|-5555-55-----------------5555-55-5555-55----------------------------|
C|---------7777-77-5555-55-----------------7777-77-55-44-2-0~---------|

Verse 2 as the first one.
Chorus 2 as the first one.

Bridge:

F|--------------------------------------------------------------------|
C|--------------------------------------------------------------------|
G|-2202-2202-0-------------2202-2202-0--------------------------------|
C|-------------5~-55555555-------------55555555(x2)-------------------|

Solo:

F|--------------------------------------------------------------------|
C|--------------------------------------------------------------------|
G|-55555555--------------------55555555-------------------------------|
C|----------77777777-55555555-----------------------------------------|(x4)

F|--------------------------------------------------------------------|
C|--------------------------------------------------------------------|
G|-5~-------5~--------------------------------------------------------|
C|----7~-5~-----------------------------------------------------------|

F|--------------------------------------------------------------------|
C|--------------------------------------------------------------------|
G|-5~-------------55555555--------------------------------------------|
C|----7~-55555555-----------------------------------------------------|

The last chorus is the same as the others. Play it twice.

I hope it`s right. If it`s not, I`m sorry.
comments
We did not receive enough feedback on this tab! Please rate:
print report bad tab
1 2 3 4 5
I want to post or [tab]
guest
You may want to rate the tab now too:
select rating
Please do not post tabs as comments. Select "correction" instead!