Oops, an error
Loading. Please wait.

Get Your Grave On bass

version 1
version 1

Whole song

Interactive

246 views 3 this week
no commentswrite comment
1 2 3 4 5
x 3
add to favorites
×
Save as Personal and add changes to this tab that will be seen only by you. Learn more ›
×
You can save this tab as Personal to edit and correct it or add notes. All changes will be seen only by you. Learn more »
launch autoscroll
font size
0
reset
guitar tuner
edit
Autoscroll
slow
fast
+/-
esc
set tempo
stop
-----------------------------------------------------------------------------
                            Get Your Grave On - Wednesday 13
-----------------------------------------------------------------------------
Tabbed by: Andu Needle
E-mail: sulfur_in_my_lungs@yahoo.com

Verse:

F|----------------------------------------------------------------------|
C|----------------------------------------------------------------------|
G|----------------------------------------------------------------------|
C|-353-xx0x0-xx0x0-xx0x0-xx0x0-xx0x0-xx0x0-xx0x0-xx0x0------------------|

F|----------------------------------------------------------------------|
C|----------------------------------------------------------------------|
G|----------------------------------------------------------------------|
C|-xx3x3-xx3x3-xx3x3-xx3x3-xx0x0-xx0x0-0--------------------------------|

Chorus:

F|----------------------------------------------------------------------|
C|----------------------------------------------------------------------|
G|----------------------------------------------------------------------|
C|-0-0000-0(x4)-3-3333-3(x4)-77777777-66663333--------------------------|

F|----------------------------------------------------------------------|
C|----------------------------------------------------------------------|
G|----------------------------------------------------------------------|
C|-0-0000-0(x2)-0-000000-77---------------------------------------------|

Verse 2:

This one is odd. I will tab it but I will explain it in words.
The verse goes like this: 23 Cs played twice, 23 D# and again 23 Cs.

F|----------------------------------------------------------------------|
C|----------------------------------------------------------------------|
G|----------------------------------------------------------------------|
C|-353-00000000-00000000-0000-000--00000000-00000000-0000-000-----------|

F|----------------------------------------------------------------------|
C|----------------------------------------------------------------------|
G|----------------------------------------------------------------------|
C|-33333333-33333333-3333-333--00000000-00000000-0000-000-353-----------|

And the rest of the verse is the same as the first one!

Chorus 2 is the same.

Bridge:

F|-----------------------------------------------------------------------|
C|-----------------------------------------------------------------------|
G|-----------------------------------------------------------------------|
C|-353-00-00-0-00-00-0-00-00-0-00-00-0--33-33-3-33-33-3-33-33-3-33-33-3--|

F|-----------------------------------------------------------------------|
C|-----------------------------------------------------------------------|
G|-----------------------------------------------------------------------|
C|-00-00-0-00-00-0-00-00-0-77--------------------------------------------|

You play these parts twice in this order!

Last chorus is the same as the others!

In the ending, there is no bass.

            
            
Suggest correction
Creating personal tab
Creating personal tab
You can edit any tab online and save it as your Personal.

You can edit, replace or remove any tab part or add personal notes – all changes will be seen only by you.

Personal tabs can be accessed anytime from any device, even offline.
Learn more »
Give kudos to tab author, rate the tab!
1 2 3 4 5
comments
print report bad tab
guest
You may want to rate the tab now too:
select rating
Wanna post a correction for this tab? Suggest correction