Oops, an error
Loading. Please wait.

Ghost Of Vincent Price Tab

version 3
version 3

Whole song

Interactive

329 views 1 this week
no commentswrite comment
1 2 3 4 5
1 last vote to show rating
add to favorites
launch autoscroll
font size
0
reset
how to read this tab
guitar tuner
Autoscroll
slow
fast
+/-
esc
set tempo
stop
Help us to improve Ultimate-Guitar.com Take our survey!
×
Author
Difficulty
Tuning
intermediate
C G C F A D
----------------------------------------------------------------------------
                        Wednesday 13 - Ghost of Vincent Price
----------------------------------------------------------------------------

Tabbed by: Metalrock4ever

Tuning: CGCFAD

Intro:
D|----------|
A|----------|
F|----------|
C|-0~-8~-5~-|  x4
G|-0~-8~-5~-|
C|-0~-8~-5~-|

Solo Part:
D|----------|
A|----------|
F|----------|
C|-0~--0~---|
G|----------|
C|----------|

D|-----------------------------------|
A|-----------------------------------|
F|-----------------------------------|
C|-0~-8-7-5-3~-5~--0~-8-7-5-3~-5~-0~-|
G|-----------------------------------|
C|-----------------------------------|

or...

D|-----------------------------------|
A|-2~-3-2-0----0~--2~-3-2-0----0~-2~-|
F|----------3~--------------3~-------|
C|-----------------------------------|
G|-----------------------------------|
C|-----------------------------------|


Verse:
D|-------------------------------------|
A|-------------------------------------|
F|-------------------------------------|
C|-0x0x0x0x-0x0x0x0x-8x8x8x8x-5x5x5x5x-|  x4
G|-0x0x0x0x-0x0x0x0x-8x8x8x8x-5x5x5x5x-|
C|-0x0x0x0x-0x0x0x0x-8x8x8x8x-5x5x5x5x-|

D|----------|
A|----------|
F|----------|
C|-0~-8~-5~-|  x2
G|-0~-8~-5~-|
C|-0~-8~-5~-|

D|-----------------------------------|
A|-----------------------------------|
F|-----------------------------------|
C|-0~-8-7-5-3~-5~--0~-8-7-5-3~-5~-0~-|
G|-----------------------------------|
C|-----------------------------------|

or...

D|-----------------------------------|
A|-2~-3-2-0----0~--2~-3-2-0----0~-2~-|
F|----------3~--------------3~-------|
C|-----------------------------------|
G|-----------------------------------|
C|-----------------------------------|


Pre-Chorus:
D|---------------------|
A|---------------------|
F|---------------------|
C|-3333-3355-7777-7755-|  x3
G|-3333-3355-7777-7755-|
C|-3333-3355-7777-7755-|

D|---------------------|
A|---------------------|
F|---------------------|
C|-3333-3355-2222-2222-|
G|-3333-3355-2222-2222-|
C|-3333-3355-2222-2222-|

Solo Part:
D|-------------|
A|----0-2~-2-0-|
F|-3~----------|
C|-------------|  x3
G|-------------|
C|-------------|

D|---------|
A|----0----|
F|-3~---2~-|
C|---------|
G|---------|
C|---------|


Chorus:
D|----------|
A|----------|
F|----------|
C|-0~-8~-5~-|  x4
G|-0~-8~-5~-|
C|-0~-8~-5~-|

D|-----------------------------------|
A|-----------------------------------|
F|-----------------------------------|
C|-0~-8-7-5-3~-5~--0~-8-7-5-3~-5~-0~-|  x2
G|-----------------------------------|
C|-----------------------------------|

or...

D|-----------------------------------|
A|-2~-3-2-0----0~--2~-3-2-0----0~-2~-|
F|----------3~--------------3~-------|
C|-----------------------------------|  x2
G|-----------------------------------|
C|-----------------------------------|


Post-Chorus:
D|----------|
A|----------|
F|----------|
C|-0~-8~-5~-|  x4
G|-0~-8~-5~-|
C|-0~-8~-5~-|

Solo Part:
D|----------|
A|----------|
F|----------|
C|-0~--0~---|
G|----------|
C|----------|


Verse 2:
D|-------------------------------------|
A|-------------------------------------|
F|-------------------------------------|
C|-0x0x0x0x-0x0x0x0x-8x8x8x8x-5x5x5x5x-|  x4
G|-0x0x0x0x-0x0x0x0x-8x8x8x8x-5x5x5x5x-|
C|-0x0x0x0x-0x0x0x0x-8x8x8x8x-5x5x5x5x-|

D|----------|
A|----------|
F|----------|
C|-0~-8~-5~-|  x2
G|-0~-8~-5~-|
C|-0~-8~-5~-|

D|-----------------------------------|
A|-----------------------------------|
F|-----------------------------------|
C|-0~-8-7-5-3~-5~--0~-8-7-5-3~-5~-0~-|
G|-----------------------------------|
C|-----------------------------------|

or...

D|-----------------------------------|
A|-2~-3-2-0----0~--2~-3-2-0----0~-2~-|
F|----------3~--------------3~-------|
C|-----------------------------------|
G|-----------------------------------|
C|-----------------------------------|


Pre-Chorus:
D|---------------------|
A|---------------------|
F|---------------------|
C|-3333-3355-7777-7755-|  x3
G|-3333-3355-7777-7755-|
C|-3333-3355-7777-7755-|

D|---------------------|
A|---------------------|
F|---------------------|
C|-3333-3355-2222-2222-|
G|-3333-3355-2222-2222-|
C|-3333-3355-2222-2222-|

Solo Part:
D|-------------|
A|----0-2~-2-0-|
F|-3~----------|
C|-------------|  x3
G|-------------|
C|-------------|

D|---------|
A|----0----|
F|-3~---2~-|
C|---------|
G|---------|
C|---------|


Chorus 2:
D|----------|
A|----------|
F|----------|
C|-0~-8~-5~-|  x4
G|-0~-8~-5~-|
C|-0~-8~-5~-|

D|-----------------------------------|
A|-----------------------------------|
F|-----------------------------------|
C|-0~-8-7-5-3~-5~--0~-8-7-5-3~-5~-0~-|  x2
G|-----------------------------------|
C|-----------------------------------|

or...

D|-----------------------------------|
A|-2~-3-2-0----0~--2~-3-2-0----0~-2~-|
F|----------3~--------------3~-------|
C|-----------------------------------|  x2
G|-----------------------------------|
C|-----------------------------------|


Bridge:
D|----------|
A|----------|
F|----------|
C|-0~-8~-5~-|  x4
G|-0~-8~-5~-|
C|-0~-8~-5~-|

Solo Part:
D|---------------5~-6~-3~-10~-8~-5~-------5~-10~-|
A|-3~-5-6-3~-6-5--------------------3~-5~--------|
F|-----------------------------------------------|
C|-----------------------------------------------|
G|-----------------------------------------------|
C|-----------------------------------------------|


Pre-Chorus:
D|---------------------|
A|---------------------|
F|---------------------|
C|-3333-3355-7777-7755-|  x3
G|-3333-3355-7777-7755-|
C|-3333-3355-7777-7755-|

D|---------------------|
A|---------------------|
F|---------------------|
C|-3333-3355-2222-2222-|
G|-3333-3355-2222-2222-|
C|-3333-3355-2222-2222-|

Solo Part:
D|-------------|
A|----0-2~-2-0-|
F|-3~----------|
C|-------------|  x3
G|-------------|
C|-------------|

D|---------|
A|----0----|
F|-3~---2~-|
C|---------|
G|---------|
C|---------|


Final Chorus:
D|----------|
A|----------|
F|----------|
C|-0~-8~-5~-|  x8
G|-0~-8~-5~-|
C|-0~-8~-5~-|

D|-----------------------------------|
A|-----------------------------------|
F|-----------------------------------|
C|-0~-8-7-5-3~-5~--0~-8-7-5-3~-5~-0~-|  x4
G|-----------------------------------|
C|-----------------------------------|

or...

D|-----------------------------------|
A|-2~-3-2-0----0~--2~-3-2-0----0~-2~-|
F|----------3~--------------3~-------|
C|-----------------------------------|  x4
G|-----------------------------------|
C|-----------------------------------|


Outro:
(Fade out)
D|----------|
A|----------|
F|----------|
C|-0~-8~-5~-|  x4
G|-0~-8~-5~-|
C|-0~-8~-5~-|

Solo Part:
D|----------|
A|----------|
F|----------|
C|-0~--0~---|
G|----------|
C|----------|

************************************

| /   slide up
| \   slide down
| ~   vibrato
| x   Mute note

************************************

If you have any comments/corrections, please say in either the comments box or message 
me. Good luck and enjoy!
Suggest correction
Give kudos to tab author, rate the tab!
1 2 3 4 5
comments
print report bad tab
guest
You may want to rate the tab now too:
select rating
Wanna post a correction for this tab? Suggest correction