Oops, an error
Loading. Please wait.

Ghoul Of My Dreams Bass Tab

327 views 1 this week
no commentswrite comment
1 2 3 4 5
please rate
add to favorites
launch autoscroll
font size
0
reset
guitar tuner
Autoscroll
slow
fast
+/-
esc
set tempo
stop
Help us to improve Ultimate-Guitar.com Take our survey!
×
Author
Difficulty
Tuning
novice
C G C F A D
-----------------------------------------------------------------------------
                             Ghoul Of My Dreams - Wednesday 13
-----------------------------------------------------------------------------
Tabbed by: Andu Needle
E-mail: sulfur_in_my_lungs@yahoo.com

Intro:

F|----------------------------------------------------|
C|----------------------------------------------------|
G|----5~-3333333--------------------------------------|
C|-5~-------------------------------------------------|

F|----------------------------------------------------|
C|----------------------------------------------------|
G|----------3333333-----------------------------------|
C|-5-55-5-5-------------------------------------------|(x3)

F|----------------------------------------------------|
C|----------------------------------------------------|
G|-5-555555-33333333----------------------------------|
C|----------------------------------------------------|

Verse:

F|----------------------------------------------------|
C|----------------------------------------------------|
G|----------------------------------------------------|
C|-55555555(x2)-3/5-55555555(x2)-3/5-55555555(x2)-----|

F|----------------------------------------------------|
C|----------------------------------------------------|
G|------------5555555---------------------------------|
C|-00000000-0-----------------------------------------|

All this part is played twice.

Chorus:

F|----------------------------------------------------|
C|----------------------------------------------------|
G|----------3333333-----------------------------------|
C|-5-55-5-5-------------------------------------------|(x3)

F|----------------------------------------------------|
C|----------------------------------------------------|
G|-5-555555-33333333----------------------------------|
C|----------------------------------------------------|

Again, all this part is played twice.

That little solo:

F|----------------------------------------------------|
C|----------------------------------------------------|
G|----------3333333-----------------------------------|
C|-5-55-5-5-------------------------------------------|(x3)

F|----------------------------------------------------|
C|----------------------------------------------------|
G|-5-555555-33333333----------------------------------|
C|----------------------------------------------------|

This time it it played only once.

Verse 2 is like the first one!
Chorus 2 is like the first one!

Big solo:

F|----------------------------------------------------|
C|----------------------------------------------------|
G|----------3333333-----------------------------------|
C|-5-55-5-5-------------------------------------------|(x3)

F|----------------------------------------------------|
C|----------------------------------------------------|
G|-5-555555-33333333----------------------------------|
C|----------------------------------------------------|

As in the choruses, you play this part twice.

Break down:

F|----------------------------------------------------|
C|----------------------------------------------------|
G|----5~-3333333--------------------------------------|
C|-5~-------------------------------------------------|

From now on there is the final chorus and an outro solo. The riff is the same as in the 
chorus for both of them.
Suggest correction
Give kudos to tab author, rate the tab!
1 2 3 4 5
comments
print report bad tab
guest
You may want to rate the tab now too:
select rating
Please do not post tabs as comments. Select "correction" instead!