Oops, an error
Loading. Please wait.

Ghoul Of My Dreams Tab

491 views 1 this week
no commentswrite comment
1 2 3 4 5
x 5
add to favorites
launch autoscroll
font size
0
reset
how to read this tab
guitar tuner
Autoscroll
slow
fast
+/-
esc
set tempo
stop
Help us to improve Ultimate-Guitar.com Take our survey!
×
Author
Tuning
C G C F A D
[ Intro ]

D---------------------------------------|
A---------------------------------------|
F---------------------------------------|
C---5-------7-------5-5-5-5-5-5-5-------|
G---5-------5-------3-3-3-3-3-3-3-------|
C---5-----------------------------------|

D---------------------------------------|
A---------------------------------------|
F---------------------------------------|
C---5--5-5--5--5-----5-5-5-5-5-5-5------|
G---5--5-5--5--5-----3-3-3-3-3-3-3------|
C---5--5-5--5--5------------------------| (x2)

D-----------------------------------------------|
A-----------------------------------------------|
F-----------------------------------------------|
C---5--5-5--5--5-----5-5-5-5-5-5-5---7--7--7--7-|
G---5--5-5--5--5-----3-3-3-3-3-3-3---5--5--5--5-|
C---5--5-5--5--5--------------------------------|

D----------------------|
A----------------------|
F----------------------|
C---5-5-5-5-5-5-5-5----|
G---3-3-3-3-3-3-3-3----|
C----------------------|

[ Verse ]

D-----------------------------|
A-----------------------------|
F-----------------------------|
C---3/5-5-5-5-5-5-5-5-5-------|
G---3/5-5-5-5-5-5-5-5-5-------|
C---3/5-5-5-5-5-5-5-5-5-------| (x3)


D----------------------------------------------------|
A----------------------------------------------------|
F----------------------------------------------------|
C---3-5-3-5-3-5-3-5-0-0-0-0-0-0-0-0--7-7-7-7-7-7-7-7-|
G---3-5-3-5-3-5-3-5-0-0-0-0-0-0-0-0--5-5-5-5-5-5-5-5-|
C---3-5-3-5-3-5-3-5-0-0-0-0-0-0-0-0------------------|

[ Chorus ]

D---------------------------------------|
A---------------------------------------|
F---------------------------------------|
C---5--5-5--5--5-----5-5-5-5-5-5-5------|
G---5--5-5--5--5-----3-3-3-3-3-3-3------|
C---5--5-5--5--5------------------------| (x2)

D-----------------------------------------------|
A-----------------------------------------------|
F-----------------------------------------------|
C---5--5-5--5--5-----5-5-5-5-5-5-5---7--7--7--7-|
G---5--5-5--5--5-----3-3-3-3-3-3-3---5--5--5--5-|
C---5--5-5--5--5--------------------------------|

D--------------------|
A--------------------|
F--------------------|
C---5-5-5-5-5-5-5-5--|
G---3-3-3-3-3-3-3-3--|
C--------------------|

[Verse]x2
[Chorus]x2

[ Part:  2:06-2:40 ]

D---------------------------------------|
A---------------------------------------|
F---------------------------------------|
C---5--5-5--5--5-----5-5-5-5-5-5-5------|
G---5--5-5--5--5-----3-3-3-3-3-3-3------|
C---5--5-5--5--5------------------------| (x2)

D-----------------------------------------------|
A-----------------------------------------------|
F-----------------------------------------------|
C---5--5-5--5--5-----5-5-5-5-5-5-5---7--7--7--7-|
G---5--5-5--5--5-----3-3-3-3-3-3-3---5--5--5--5-|
C---5--5-5--5--5--------------------------------|

D--------------------|
A--------------------|
F--------------------|
C---5-5-5-5-5-5-5-5--|
G---3-3-3-3-3-3-3-3--|
C--------------------| (repeat this part 3x)

D---------------------------------------|
A---------------------------------------|
F---------------------------------------|
C---5-------7-------5-5-5-5-5-5-5-------|
G---5-------5-------3-3-3-3-3-3-3-------|
C---5-----------------------------------|

[Chorus] x4
Suggest correction
comments
print report bad tab
guest
You may want to rate the tab now too:
select rating
Wanna post a correction for this tab? Suggest correction