Oops, an error
Loading. Please wait.

God Is A Lie Tab

version 1
version 1

Whole song

Interactive

4,937 views 1 this week
5 commentsread comments
1 2 3 4 5
x 3
add to favorites
launch autoscroll
font size
0
reset
how to read this tab
guitar tuner
Autoscroll
slow
fast
+/-
esc
set tempo
stop
Help us to improve Ultimate-Guitar.com Take our survey!
×
Author
Eb|-------------------------------------------------------------------------|||
Bb|-------------------------------------------------------------------------|||
Gb|------------------------44444444-----------------------------------------|||
Db|-66666666---22222222----44444444- -66666666------------------------------|||
Ab|-66666666---22222222- --22222222---66666666------------------------------|||
Db|-66666666---22222222---------------6666666-------------------------------|||
  ---------pm---------------------------------------------------------------||| and then open up

lead at the start
Eb|--------------------------------||
Bb|--------------------------------||
Gb|--14-14-12-14-12-17-16----------||(x6)
Db|--------------------------------||
Ab|--------------------------------||
Db|--------------------------------||

Eb|-------------------------------------------------------------------------||
B1b|------------------------------------------------------------------------||
Gb|------------------------44444444-----------------------------------------||
Db|-66666666---22222222----44444444- -66666666------------------------------||x2
Ab|-66666666---22222222- --22222222---66666666------------------------------||
Db|-66666666---22222222---------------66666666------------------------------||

Breakdown Before chorus
Eb|-------------------------------------------------------------||
Bb|-------------------------------------------------------------||
Gb|------------------------4------------------------------------||
Db|--66666666---------4-2--4-4----------------------------------||
Ab|--66666666---------4-2--2-4----------------------------------||
Db|--66666666---------4-2----4----------------------------------||

Pre Chorus
Eb|------------------------------------------------||
Bb|------------------------------------------------||
Gb|------------------------------------------------||
Db|--2-----4-----1---------------------------------||
Ab|--2-----4-----1---------------------------------||
Db|--2-----4-----1---------------------------------||
let all of the notes ring

Chorus
Eb|-------------------------------------------------------------------------||
Bb|-------------------------------------------------------------------------||
Gb|------------------------44444444-----------------------------------------||
Db|-66666666---22222222----44444444- ---------------------------------------||(x4)
Ab|-66666666---22222222- --22222222-----------------------------------------||
Db|-66666666---22222222-----------------------------------------------------||


After Chorus
Eb|--------------------------------------------------||
Bb|--------------------------------------------------||
Gb|--------------------------------------------------||
Db|-6-6-6-6---2--------------------------------------||(repeat until verse starts again)
Ab|-6-6-6-6---2--------------------------------------||
Db|-6-6-6-6---2--------------------------------------||

Verse
Eb|-----------------------------------------------------------------------------||
B1b|----------------------------------------------------------------------------||
Gb|------------------------44444444---------------------------------------------||
Db|-66666666---22222222----44444444- -66666666----------------------------------||x2
Ab|-66666666---22222222- --22222222---66666666----------------------------------||
Db|-66666666---22222222---------------66666666----------------------------------||

Breakdown Before chorus
Eb|-------------------------------------------------------------||
Bb|-------------------------------------------------------------||
Gb|------------------------4------------------------------------||
Db|--66666666---------4-2--4-4----------------------------------||
Ab|--66666666---------4-2--2-4----------------------------------||
Db|--66666666---------4-2----4----------------------------------||

Pre Chorus
Eb|------------------------------------------------||
Bb|------------------------------------------------||
Gb|------------------------------------------------||
Db|--2-----4-----1---------------------------------||
Ab|--2-----4-----1---------------------------------||
Db|--2-----4-----1---------------------------------||
let all of the notes ring

Chorus
Eb|-------------------------------------------------------------------------||
Bb|-------------------------------------------------------------------------||
Gb|------------------------44444444-----------------------------------------||
Db|-66666666---22222222----44444444- ---------------------------------------||(x4)
Ab|-66666666---22222222- --22222222-----------------------------------------||
Db|-66666666---22222222-----------------------------------------------------||

After Chorus
Eb|--------------------------------------------------||
Bb|--------------------------------------------------||
Gb|--------------------------------------------------||
Db|-6-6-6-6---2--------------------------------------||(reapeat until solo starts)
Ab|-6-6-6-6---2--------------------------------------||
Db|-6-6-6-6---2--------------------------------------||


Solo
Eb|------------------13--------------------------------------15-15-15-15----||
|Bb|-b13-b13-b13-b13---b13-13-11-10-8-8-11~11h13-13~13h1515~----------------||
Gb|-------------------------------------------------------------------------||
Db|-------------------------------------------------------------------------||
Ab|-------------------------------------------------------------------------||
Db|-------------------------------------------------------------------------||

e|15-15-15-15-15-15-18-20-b20-b20-20-18-15~15p13~13p10-10-15-17-18-17-15-15|
b|------------------------------------------------------------------------||
g|-------------------------------------------------------------------------|
d|-------------------------------------------------------------------------|
a|-------------------------------------------------------------------------|
D|-------------------------------------------------------------------------|

Pre Chorus
Eb|------------------------------------------------||
Bb|------------------------------------------------||
Gb|------------------------------------------------||
Db|--2-----4-----1---------------------------------||
Ab|--2-----4-----1---------------------------------||
Db|--2-----4-----1---------------------------------||
let all of the notes ring

Chorus
Eb|-------------------------------------------------------------------------||
Bb|-------------------------------------------------------------------------||
Gb|------------------------44444444-----------------------------------------||
Db|-66666666---22222222----44444444- ---------------------------------------||(x4)
Ab|-66666666---22222222- --22222222-----------------------------------------||
Db|-66666666---22222222-----------------------------------------------------||
Suggest correction
Give kudos to tab author, rate the tab!
1 2 3 4 5
comments
print report bad tab
5 comments total. Showing first comments.
0 reply
ding 270 Jun 05, 2005 12:00 AM

you are so wrong its unbelievable. tut tut

0 reply
metal_man696 10 Jul 29, 2005 12:00 AM

:grr:

0 reply
metal_man696 10 Jul 29, 2005 12:00 AM

damn it doesnt work

guest
You may want to rate the tab now too:
select rating
Wanna post a correction for this tab? Suggest correction