Oops, an error
Loading. Please wait.

God Is A Lie Bass Tab

version 2
version 2

Whole song

Interactive

429 views 1 this week
no commentswrite comment
1 2 3 4 5
1 last vote to show rating
add to favorites
launch autoscroll
font size
0
reset
guitar tuner
Autoscroll
slow
fast
+/-
esc
set tempo
stop
Help us to improve Ultimate-Guitar.com Take our survey!
×
Author
0:00-0:11
G|----------------------------------------------------------------||
D|----------------------------88888888----------------------------||
A|-1010101010101010--66666666-----------88888888------------------||
E|----------------------------------------------------------------||

0:12-0:41
G|----------------------------------------------------------------||
D|----------------------------------------------------------------||
A|-1010101010101010--66666666------------88888888-----------------||
E|-----------------------------66666666---------------------------||

0:42-0:49
G|----------------------------------------------------------------||
D|-------------------------88888888-------------------------------||
A|-10101010-10-8-6-666666------------88888888---------------------||
E|----------------------------------------------------------------||

0:40-0:54
G|----------------||
D|----------------||
A|-6------5-------||
E|----------------||

0:54-1:14
G|----------------------------------------------------------------||
D|------------------------------88888888--------------------------||
A|-10101010101010-----66666666--------------88888888--------------||
E|----------------------------------------------------------------||

1:14-1:25
G|----------------------------------||
D|----------------------------------||
A|-10-10-8-10-10-8-10-10-8-10-10-6--||
E|----------------------------------||

1:25-1:45
G|----------------------------------------------------------------||
D|------------------------------88888888--------------------------||
A|-10101010101010-----66666666--------------88888888--------------||
E|----------------------------------------------------------------||

1:45-1:54
G|----------------------------------------------------------------||
D|-------------------------88888888-------------------------------||
A|-10101010-10-8-6-666666------------88888888---------------------||
E|----------------------------------------------------------------||

1:54-2:00
G|----------------||
D|----------------||
A|-6------5-------||
E|----------------||

2:00-2:19
G|----------------------------------------------------------------||
D|------------------------------88888888--------------------------||
A|-10101010101010-----66666666--------------88888888--------------||
E|----------------------------------------------------------------||

2:19-2:30
G|----------------------------------||
D|----------------------------------||
A|-10-10-8-10-10-8-10-10-8-10-10-6--||
E|----------------------------------||

2:30-2:50
G|----------------------------------------------------------------||
D|----------------------------88888888----------------------------||
A|-1010101010101010--66666666-----------88888888------------------||
E|----------------------------------------------------------------||

2:50-3:00
G|----------------------------------------------------------------||
D|-------------------------88888888-------------------------------||
A|-10101010-10-8-6-666666------------88888888---------------------||
E|----------------------------------------------------------------||

3:00-3:06
G|----------------||
D|----------------||
A|-6------5-------||
E|----------------||

3:06-3:25
G|----------------------------------------------------------------||
D|------------------------------88888888--------------------------||
A|-10101010101010-----66666666--------------88888888--------------||
E|----------------------------------------------------------------||

3:25-3:37
G|----------------------------------||
D|----------------------------------||
A|-10-10-8-10-10-8-10-10-8-10-10-6--||
E|----------------------------------||
Suggest correction
Give kudos to tab author, rate the tab!
1 2 3 4 5
comments
print report bad tab
guest
You may want to rate the tab now too:
select rating
Wanna post a correction for this tab? Suggest correction