Oops, an error
Loading. Please wait.

God Is A Lie Tab

version 2
version 2

Whole song

Interactive

1,151 views 3 this week
no commentswrite comment
1 2 3 4 5
please rate
add to favorites
launch autoscroll
font size
0
reset
how to read this tab
guitar tuner
Autoscroll
slow
fast
+/-
esc
set tempo
stop
Help us to improve Ultimate-Guitar.com Take our survey!
×
Tabbed by Robin Graves

Intro: (palm muted)

Eb--------------------------------------|
Bb--------------------------------------|
Gb--------------------------------------|
Db--------------------------------------|
Ab--66666666-22222222-99999999-44444444-|
Db--66666666-22222222-99999999-44444444-|

Gtr. 2

Eb------------------------|
Bb------------------------|
Gb--------4~--------------|
Db—6~--2~----6~-----------|
Ab------------------------|
Db------------------------|

Pre-Verse:

Eb------------------------------------|
Bb------------------------------------|
Gb------------------------------------|
Db------------------------------------|
Ab--66-6666-22-2222-99-9999-44-4444---|
Db--66-6666-22-2222-99-9999-44-4444---|

Gtr. 2

Eb----------------------------------|
Bb----------------------------------|
Gb---------555-444---------444------|
Db--66-4h6----------66-4h6-----444--|
Ab----------------------------------|
Db----------------------------------|

Pre-Chorus:

Eb-------------------------------------------|
Bb-------------------------------------------|
Gb-------------------------------------------|
Db-------------------------------------------|
Ab--666-4-2~--9~-4~-666-4-2~--9~-4~--2~--1~--|
Db--666-4-2~--9~-4~-666-4-2~--9~-4~--2~--1~--|

Gtr. 2

Eb----------------------------------------|
Bb----------------------------------------|
Gb-----------4~--------------4~-----------|
Db--666-4-2~----4~--666-4-2~----4~-2~-1~--|
Ab----------------------------------------|
Db----------------------------------------|

Bridge:

Eb-------------------------|
Bb-------------------------|
Gb-------------------------|
Db-------------------------|
Ab--66-2-666-2-666-2-666-2-|
Db--66-2-666-2-666-2-666-2-|

Gtr. 2

Eb-------------------------|
Bb-------------------------|
Gb-------------------------|
Db--66-2-666-2-666-2-666-2-|
Ab-------------------------|
Db-------------------------|
Suggest correction
Give kudos to tab author, rate the tab!
1 2 3 4 5
comments
print report bad tab
guest
You may want to rate the tab now too:
select rating
Wanna post a correction for this tab? Suggest correction