Oops, an error
Loading. Please wait.

Haddonfield Tab

version 3
version 3

Whole song

971 views 1 this week
no commentswrite comment
1 2 3 4 5
please rate
add to favorites
launch autoscroll
font size
0
reset
how to read this tab
guitar tuner
Autoscroll
slow
fast
+/-
esc
set tempo
stop
Help us to improve Ultimate-Guitar.com Take our survey!
×
Author
Here Is The Great Tab Haddonfield  From Wednesday 13.
This Song Is Very Easy To Play.


Intro   :
Verse 1 :
Verse 2 :

E-------------------------------------------------------------------------|
B--Play-this-2X-----------------------------------------------------------|
G-------------------------------------------------------------------------|
D--33-333-333-333-333-----------------------------------------------------|
A--11-111-111-111-111--44-444-444-444--33-333-333-333-333-----------------|
E----------------------22-222-222-222--11-111-111-111-111-----------------|

Chourus :


E-------------------------------------------------------------------------|
B-------------------------------------------------------------------------|
G-------------------------------------------------------------------------|
D-66-666-666-666-666----------------44-444-444-444-444--------------------|
A-44-444-444-444-444-66-666-666-666-22-222-222-222-222--44-444-444-444-444|
E--------------------44-444-444-444---------------------22-222-222 222-222|

Interlude :


E-------------------------------------------------------------------------|
B-------------------------------------------------------------------------|
G-------------------------------------------------------------------------|
D-------------------------------------------------------------------------|
A-33-333-333-333-333------------------------------------------------------|
E-11-111-111-111-111------------------------------------------------------|

Solo :


E----------------------------------------------------------------------|
B------------6~------7777-6666------6666-------------------------------|
G-6~-6666-868------6~----------8888------6-Slide-to-14-----------------|
D----------------------------------------------------------------------|
A----------------------------------------------------------------------|
E----------------------------------------------------------------------|

E-161413-161413-161413 161413-14141414-13131315-16161616 13131315-----------|
B---------------------------------------------------------------------------|
G---------------------------------------------------------------------------|
D---------------------------------------------------------------------------|
A---------------------------------------------------------------------------|
E---------------------------------------------------------------------------|
Suggest correction
Give kudos to tab author, rate the tab!
1 2 3 4 5
comments
print report bad tab
guest
You may want to rate the tab now too:
select rating
Wanna post a correction for this tab? Suggest correction