Oops, an error
Loading. Please wait.

Monsters Of The Universe Come Out And Plague Tab

106 views 3 this week
no commentswrite comment
1 2 3 4 5
2 more votes to show rating
add to favorites
launch autoscroll
font size
0
reset
how to read this tab
guitar tuner
Autoscroll
slow
fast
+/-
esc
set tempo
stop
Help us to improve Ultimate-Guitar.com Take our survey!
×
Author
Difficulty
Tuning
intermediate
C G C F A D
This album tab is created by Living Dead 31.

Artist: Wednesday 13
Album: Monsters of The Universe: Come Out and Plague
Year: 2015
Tuning: Drop C
        Drop B
        Drop Bb (A#)





1. The Fall of All


[Intro/Verse/Outro]

D|----------------------------------------------------------------------------------------------------|
A|----------------------------------------------------------------------------------------------------|
F|----------------------------------------------------------------------------------------------------|
C|----------------------------------------------------------------------------------------------------|
G|--7-7-7-7-7-7-7-7-7-7-7-7-7-7-7-7-6-6-6-6-6-6-6-6-6-6-6-6-6-6-6-6-5-5-5-5-5-5-5-5-5-5-5-5-5-5-5-5---|
C|----------------------------------------------------------------------------------------------------|

D|------------------------------------|
A|------------------------------------|
F|------------------------------------|
C|------------------------------------|
G|--1-1-1-1-1-1-1-1-2-2-2-2-2-2-2-2---|
C|------------------------------------|(x7)


2. Keep Watching The Skies


[Intro]

D|-------------------------------------------|
A|-------------------------------------------|
F|-------------------------------------------|
C|------2-------2-------2-------2--5-3-2-2---|
G|------2-------2-------2-------2--5-3-2-2---|
C|--2-2-2---2-2-2---2-2-2---2-2-2--5-3-2-2---|
    . .     . .     . .     . .             

D|--------------------------------------------------------------------------|
A|--------------------------------------------------------------------------|
F|--------------------------------------------------------------------------|
C|-----------------------2------2------2------2--0-0-0-2--------------------|
G|-----------------------2------2------2------2--0-0-0-2--------------------|
C|--2-2-2-2-2-2-2-2--2-2-2--2-2-2--2-2-2--2-2-2--0-0-0-2--2-2-2-2-2-2-2-2---|(x2)
    . . . . . . . .  . .    . .    . .    . .             . . . . . . . .


[Verse]

D|-------------------------------------------|
A|-------------------------------------------|
F|-------------------------------------------|
C|------2-------2-------2-------2--5-3-2-2---|
G|------2-------2-------2-------2--5-3-2-2---|
C|--2-2-2---2-2-2---2-2-2---2-2-2--5-3-2-2---|
    . .     . .     . .     . .             

D|--------------------------------------------------------------------------|
A|--------------------------------------------------------------------------|
F|--------------------------------------------------------------------------|
C|-----------------------2------2------2------2--0-0-0-2--------------------|
G|-----------------------2------2------2------2--0-0-0-2--------------------|
C|--2-2-2-2-2-2-2-2--2-2-2--2-2-2--2-2-2--2-2-2--0-0-0-2--2-2-2-2-2-2-2-2---|
    . . . . . . . .  . .    . .    . .    . .             . . . . . . . .


[Pre-Chorus]

D|----------------------------------------------------------------------------------------------------|
A|----------------------------------------------------------------------------------------------------|
F|----------------------------------------------------------------------------------------------------|
C|--8-7-5-2-------------------8-7-5-2-------------------8-7-5-2--------------------0-0-0-2--2-2-2-2---|
G|--8-7-5-2-------------------8-7-5-2-------------------8-7-5-2--------------------0-0-0-2--2-2-2-2---|
C|--8-7-5-2--2-2-2-2-2-2-2-2--8-7-5-2--2-2-2-2-2-2-2-2--8-7-5-2--2-2-2-2-2-2-2-2---0-0-0-2--2-2-2-2---|(x2)
             . . . . . . . .           . . . . . . . .           . . . . . . . .            .   .

D|-----------------|
A|-----------------|
F|-----------------|
C|--8-7--8-7-5-2---|
G|--8-7--8-7-5-2---|
C|--8-7--8-7-5-2---|


[Chorus]

D|------------------------------------------------------------|
A|------------------------------------------------------------|
F|------------------------------------------------------------|
C|------2-------2-------2-------2--5-3-2-2--------------------|
G|------2-------2-------2-------2--5-3-2-2--------------------|
C|--2-2-2---2-2-2---2-2-2---2-2-2--5-3-2-2--2-2-2-2-2-2-2-2---|
    . .     . .     . .     . .             . . . . . . . .


D|---------------------------------------------------------|
A|---------------------------------------------------------|
F|---------------------------------------------------------|
C|------2------2------2------2--0-0-0-2--------------------|
G|------2------2------2------2--0-0-0-2--------------------|
C|--2-2-2--2-2-2--2-2-2--2-2-2--0-0-0-2--2-2-2-2-2-2-2-2---|(x2)
    . .    . .    . .    . .             . . . . . . . .


D|--------13-12---13------------------------|
A|--5~----------------5~---/---3-5-3-5--/---|
F|------------------------------------------|
C|------------------------------------------|
G|------------------------------------------|
C|------------------------------------------|(x2)


[Verse]

D|-------------------------------------------|
A|-------------------------------------------|
F|-------------------------------------------|
C|------2-------2-------2-------2--5-3-2-2---|
G|------2-------2-------2-------2--5-3-2-2---|
C|--2-2-2---2-2-2---2-2-2---2-2-2--5-3-2-2---|
    . .     . .     . .     . .             

D|--------------------------------------------------------------------------|
A|--------------------------------------------------------------------------|
F|--------------------------------------------------------------------------|
C|-----------------------2------2------2------2--0-0-0-2--------------------|
G|-----------------------2------2------2------2--0-0-0-2--------------------|
C|--2-2-2-2-2-2-2-2--2-2-2--2-2-2--2-2-2--2-2-2--0-0-0-2--2-2-2-2-2-2-2-2---|
    . . . . . . . .  . .    . .    . .    . .             . . . . . . . .


[Pre-Chorus]

D|----------------------------------------------------------------------------------------------------|
A|----------------------------------------------------------------------------------------------------|
F|----------------------------------------------------------------------------------------------------|
C|--8-7-5-2-------------------8-7-5-2-------------------8-7-5-2--------------------0-0-0-2--2-2-2-2---|
G|--8-7-5-2-------------------8-7-5-2-------------------8-7-5-2--------------------0-0-0-2--2-2-2-2---|
C|--8-7-5-2--2-2-2-2-2-2-2-2--8-7-5-2--2-2-2-2-2-2-2-2--8-7-5-2--2-2-2-2-2-2-2-2---0-0-0-2--2-2-2-2---|(x2)
             . . . . . . . .           . . . . . . . .           . . . . . . . .            .   .

D|-----------------|
A|-----------------|
F|-----------------|
C|--8-7--8-7-5-2---|
G|--8-7--8-7-5-2---|
C|--8-7--8-7-5-2---|


[Chorus]

D|------------------------------------------------------------|
A|------------------------------------------------------------|
F|------------------------------------------------------------|
C|------2-------2-------2-------2--5-3-2-2--------------------|
G|------2-------2-------2-------2--5-3-2-2--------------------|
C|--2-2-2---2-2-2---2-2-2---2-2-2--5-3-2-2--2-2-2-2-2-2-2-2---|
    . .     . .     . .     . .             . . . . . . . .


D|---------------------------------------------------------|
A|---------------------------------------------------------|
F|---------------------------------------------------------|
C|------2------2------2------2--0-0-0-2--------------------|
G|------2------2------2------2--0-0-0-2--------------------|
C|--2-2-2--2-2-2--2-2-2--2-2-2--0-0-0-2--2-2-2-2-2-2-2-2---|(x2)
    . .    . .    . .    . .             . . . . . . . .


D|--------13-12---13------------------------|
A|--5~----------------5~---/---3-5-3-5--/---|
F|------------------------------------------|
C|------------------------------------------|
G|------------------------------------------|
C|------------------------------------------| (x2)


[Bridge]

D|---------------------------------------------------------------------------------|
A|---------------------------------------------------------------------------------|
F|---------------------------------------------------------------------------------|
C|---------------------------------------------------------------------------------|
G|--7-7-7-7-7-7-7-7-7-7-7-7-7-7-7-7-10-10-10-10-10-10-10-10-5-5-5-5-5-5------------|
C|---------------------------------------------------------------------------------| 
   . . . . . . . . . . . . . . . . .  .  .  .  .  .  .  .  . . . . . .

D|--------------------------------------------------------------------|
A|--------------------------------------------------------------------|
F|--------------------------------------------------------------------|
C|--------------------------------------------------------------------|
G|--8-8-8-8-7-7-7-7-7-7-7-7-7-7-7-7-7-7-7-7-5-5-5-5-8-8-8-8-8-8-8-8---|
C|--------------------------------------------------------------------|(x3)
    . . . . . . . . . . . . . . . . . . . . . . . . . . . . . . . . 


D|---------------------------------------------------------------------------------|
A|---------------------------------------------------------------------------------|
F|---------------------------------------------------------------------------------|
C|---------------------------------------------------------------------------------|
G|--7-7-7-7-7-7-7-7-7-7-7-7-7-7-7-7-10-10-10-10-10-10-10-10-5-5-5-5-5-5------------|
C|---------------------------------------------------------------------------------| 
   . . . . . . . . . . . . . . . . .  .  .  .  .  .  .  .  . . . . . .


D|-------------------------------------------------------|
A|-------------------------------------------------------|
F|-------------------------------------------------------|
C|-------------------------------------------------------|
G|--8-8-8-8-7-7-7-7-7-7-7-7-7-7-7-7-7-7-7-7-5-5-5-5-8----|
C|-------------------------------------------------------|
    . . . . . . . . . . . . . . . . . . . . . . . . .


D|------------------------------------------------------------------------|
A|------------------------------------------------------------------------|
F|------------------------------------------------------------------------|
C|------------------------------------------------------------------------|
G|------------------------------------------------------------------------|
C|--2-2-2-2-2-2-2-2-2-2-2-2-2-2-2-2-5-5-5-5-5-5-5-5-0-0-0-0-0-0-3-3-3-3---|


D|------------------------------------------------------------|
A|------------------------------------------------------------|
F|------------------------------------------------------------|
C|------------------------------------------------------------|
G|------------------------------------------------------------|
C|--2-2-2-2-2-2-2-2-2-2-2-2-2-2-2-2-0-0-0-0-3-3-3-3-3-3-3-3---|


D|-----------------|
A|-----------------|
F|-----------------|
C|--8-7--8-7-5-2---|
G|--8-7--8-7-5-2---|
C|--8-7--8-7-5-2---|


[Chorus]

D|------------------------------------------------------------|
A|------------------------------------------------------------|
F|------------------------------------------------------------|
C|------2-------2-------2-------2--5-3-2-2--------------------|
G|------2-------2-------2-------2--5-3-2-2--------------------|
C|--2-2-2---2-2-2---2-2-2---2-2-2--5-3-2-2--2-2-2-2-2-2-2-2---|
    . .     . .     . .     . .             . . . . . . . .


D|---------------------------------------------------------|
A|---------------------------------------------------------|
F|---------------------------------------------------------|
C|------2------2------2------2--0-0-0-2--------------------|
G|------2------2------2------2--0-0-0-2--------------------|
C|--2-2-2--2-2-2--2-2-2--2-2-2--0-0-0-2--2-2-2-2-2-2-2-2---|(x2)
    . .    . .    . .    . .             . . . . . . . .


D|--------13-12---13------------------------|
A|--5~----------------5~---/---3-5-3-5--/---|
F|------------------------------------------|
C|------------------------------------------|
G|------------------------------------------|
C|------------------------------------------|(x2)


[Outro]

D|-----------------|
A|-----------------|
F|-----------------|
C|--8-7--8-7-5-2---|
G|--8-7--8-7-5-2---|
C|--8-7--8-7-5-2---|



3. Astro Psycho Galactic Blood Drive


[Intro]

D|----------|
F|----------|
A|----------|
C|--6---5---|
G|--6---5---|
C|--6---5---|


[Verse]

D|-----------------------------------------------------------------------------------------|
F|-----------------------------------------------------------------------------------------|
A|-----------------------------------------------------------------------------------------|
C|--------------------0---------------------0---------------------0--------------5/7/5/8---|
G|--------------------0---------------------0---------------------0--------------3/5/3/6---|
C|--0--0--0-0-0-0-0-0-0--0--0--0-0-0-0-0-0--0--0--0--0-0-0-0-0-0--0--0--0--0-0-0-----------|
    .  .  . . . . . .    .  .  . . . . . .     .  .  . . . . . .     .  .  . . .

D|----------------------------------------------------------------------------|
F|----------------------------------------------------------------------------|
A|----------------------------------------------------------------------------|
C|---------------------0---------------------0---------------------0--6---5---|
G|---------------------0---------------------0---------------------0--6---5---|
C|--0--0--0-0-0-0-0-0--0--0--0--0-0-0-0-0-0--0--0--0--0-0-0-0-0-0--0--6---5---|(x2)
    .  .  . . . . . .     .  .  . . . . . .     .  .  . . . . . .


[Pre-Chorus]

D|---------------------------------------------------------|
F|---------------------------------------------------------|
A|---------------------------------------------------------|
C|--8-8-8-8-8-8-8-8-8-8-8-8-8-8-8-8-7-7-7-7-7-7-7-7-6--5---|
G|--8-8-8-8-8-8-8-8-8-8-8-8-8-8-8-8-7-7-7-7-7-7-7-7-6--5---|
C|--8-8-8-8-8-8-8-8-8-8-8-8-8-8-8-8-7-7-7-7-7-7-7-7-6--5---|


[Chorus]

D|-----------------------------------------------------------------------------------------|
F|-----------------------------------------------------------------------------------------|
A|-----------------------------------------------------------------------------------------|
C|--------------------0---------------------0---------------------0--------------5/7/5/8---|
G|--------------------0---------------------0---------------------0--------------3/5/3/6---|
C|--0--0--0-0-0-0-0-0-0--0--0--0-0-0-0-0-0--0--0--0--0-0-0-0-0-0--0--0--0--0-0-0-----------|
    .  .  . . . . . .    .  .  . . . . . .     .  .  . . . . . .     .  .  . . .

D|----------------------------------------------------------------------------|
F|----------------------------------------------------------------------------|
A|----------------------------------------------------------------------------|
C|---------------------0---------------------0---------------------0--6---5---|
G|---------------------0---------------------0---------------------0--6---5---|
C|--0--0--0-0-0-0-0-0--0--0--0--0-0-0-0-0-0--0--0--0--0-0-0-0-0-0--0--6---5---|
    .  .  . . . . . .     .  .  . . . . . .     .  .  . . . . . .


[Verse]

D|-----------------------------------------------------------------------------------------|
F|-----------------------------------------------------------------------------------------|
A|-----------------------------------------------------------------------------------------|
C|--------------------0---------------------0---------------------0--------------5/7/5/8---|
G|--------------------0---------------------0---------------------0--------------3/5/3/6---|
C|--0--0--0-0-0-0-0-0-0--0--0--0-0-0-0-0-0--0--0--0--0-0-0-0-0-0--0--0--0--0-0-0-----------|
    .  .  . . . . . .    .  .  . . . . . .     .  .  . . . . . .     .  .  . . .

D|----------------------------------------------------------------------------|
F|----------------------------------------------------------------------------|
A|----------------------------------------------------------------------------|
C|---------------------0---------------------0---------------------0--6---5---|
G|---------------------0---------------------0---------------------0--6---5---|
C|--0--0--0-0-0-0-0-0--0--0--0--0-0-0-0-0-0--0--0--0--0-0-0-0-0-0--0--6---5---|(x2)
    .  .  . . . . . .     .  .  . . . . . .     .  .  . . . . . .


[Pre-Chorus]

D|---------------------------------------------------------|
F|---------------------------------------------------------|
A|---------------------------------------------------------|
C|--8-8-8-8-8-8-8-8-8-8-8-8-8-8-8-8-7-7-7-7-7-7-7-7-6--5---|
G|--8-8-8-8-8-8-8-8-8-8-8-8-8-8-8-8-7-7-7-7-7-7-7-7-6--5---|
C|--8-8-8-8-8-8-8-8-8-8-8-8-8-8-8-8-7-7-7-7-7-7-7-7-6--5---|


[Chorus]

D|-----------------------------------------------------------------------------------------|
F|-----------------------------------------------------------------------------------------|
A|-----------------------------------------------------------------------------------------|
C|--------------------0---------------------0---------------------0--------------5/7/5/8---|
G|--------------------0---------------------0---------------------0--------------3/5/3/6---|
C|--0--0--0-0-0-0-0-0-0--0--0--0-0-0-0-0-0--0--0--0--0-0-0-0-0-0--0--0--0--0-0-0-----------|
    .  .  . . . . . .    .  .  . . . . . .     .  .  . . . . . .     .  .  . . .

D|----------------------------------------------------------------------------|
F|----------------------------------------------------------------------------|
A|----------------------------------------------------------------------------|
C|---------------------0---------------------0---------------------0--6---5---|
G|---------------------0---------------------0---------------------0--6---5---|
C|--0--0--0-0-0-0-0-0--0--0--0--0-0-0-0-0-0--0--0--0--0-0-0-0-0-0--0--6---5---|
    .  .  . . . . . .     .  .  . . . . . .     .  .  . . . . . .


[Bridge]

D|-----------------------------------------------------------------------------------------|
F|-----------------------------------------------------------------------------------------|
A|-----------------------------------------------------------------------------------------|
C|--------------------0---------------------0---------------------0--------------5/7/5/8---|
G|--------------------0---------------------0---------------------0--------------3/5/3/6---|
C|--0--0--0-0-0-0-0-0-0--0--0--0-0-0-0-0-0--0--0--0--0-0-0-0-0-0--0--0--0--0-0-0-----------|
    .  .  . . . . . .    .  .  . . . . . .     .  .  . . . . . .     .  .  . . .

D|----------------------------------------------------------------------------|
F|----------------------------------------------------------------------------|
A|----------------------------------------------------------------------------|
C|---------------------0---------------------0---------------------0--6---5---|
G|---------------------0---------------------0---------------------0--6---5---|
C|--0--0--0-0-0-0-0-0--0--0--0--0-0-0-0-0-0--0--0--0--0-0-0-0-0-0--0--6---5---|
    .  .  . . . . . .     .  .  . . . . . .     .  .  . . . . . .


[Pre-Chorus]

D|---------------------------------------------------------|
F|---------------------------------------------------------|
A|---------------------------------------------------------|
C|--8-8-8-8-8-8-8-8-8-8-8-8-8-8-8-8-7-7-7-7-7-7-7-7-6--5---|
G|--8-8-8-8-8-8-8-8-8-8-8-8-8-8-8-8-7-7-7-7-7-7-7-7-6--5---|
C|--8-8-8-8-8-8-8-8-8-8-8-8-8-8-8-8-7-7-7-7-7-7-7-7-6--5---|


[Chorus]

D|-----------------------------------------------------------------------------------------|
F|-----------------------------------------------------------------------------------------|
A|-----------------------------------------------------------------------------------------|
C|--------------------0---------------------0---------------------0--------------5/7/5/8---|
G|--------------------0---------------------0---------------------0--------------3/5/3/6---|
C|--0--0--0-0-0-0-0-0-0--0--0--0-0-0-0-0-0--0--0--0--0-0-0-0-0-0--0--0--0--0-0-0-----------|
    .  .  . . . . . .    .  .  . . . . . .     .  .  . . . . . .     .  .  . . .

D|----------------------------------------------------------------------------|
F|----------------------------------------------------------------------------|
A|----------------------------------------------------------------------------|
C|---------------------0---------------------0---------------------0--6---5---|
G|---------------------0---------------------0---------------------0--6---5---|
C|--0--0--0-0-0-0-0-0--0--0--0--0-0-0-0-0-0--0--0--0--0-0-0-0-0-0--0--6---5---|
    .  .  . . . . . .     .  .  . . . . . .     .  .  . . . . . .


[Outro]

D|------------------------------------------------------------------------------------|
F|------------------------------------------------------------------------------------|
A|------------------------------------------------------------------------------------|
C|-----------------------------------6--5---6--5---6--5---6--5---6--5---6--5---6--5---|
G|-----------------------------------6--5---6--5---6--5---6--5---6--5---6--5---6--5---|
C|---0--(pick as much as you hear)---6--5---6--5---6--5---6--5---6--5---6--5---6--5---|
     . 


4. Come Out And Plague


[Intro]

A#|-----------------------------------------------------|
G |-----------------------------------------------------|
D#|--7-7---------7-7---------7-7------------------------|
A#|--7-7--x-x-x--7-7--x-x-x--7-7--x-x-x--x-x-x--x-x-x---|
F |--5-5--x-x-x--5-5--x-x-x--5-5--x-x-x--x-x-x--x-x-x---|
A#|-------x-x-x-------x-x-x-------x-x-x--x-x-x--x-x-x---|(x3)

A#|------------------------------|
G |------------------------------|
D#|--7-7---------7-7---------7---|
A#|--7-7--x-x-x--7-7--x-x-x--7---|
F |--5-5--x-x-x--5-5--x-x-x--5---|
A#|-------x-x-x-------x-x-x------|


[Verse]

A#|---------------------------------------------------------------------------------------------|
G |---------------------------------------------------------------------------------------------|
D#|---------------------------------------------------------------------------------------------|
A#|---------------------------------------------------------------------------------------------|
F |--------5h4------------------------------------------5h4-------------------------------------|
A#|--0-0-0-----5h4--3b--0-0-0-0-0-0-0-0-0-0-0-0---0-0-0-----5h4--3b--0-0-0-0-0-0--3h5-5-3h5-5---|(x2)
     . . .              . . . . . . . . . . . .   . . .              . . . . . .

A#|--------------------------------------------------------|
G |--------------------------------------------------------|
D#|----------------7-7-7-7-7-7-----------------------------|
A#|---0-0-0-0-0-0--7-7-7-7-7-7--0-0-0-0-0-0--3-3-3-3-3-3---|
F |---0-0-0-0-0-0--5-5-5-5-5-5--0-0-0-0-0-0--3-3-3-3-3-3---|
A#|---0-0-0-0-0-0---------------0-0-0-0-0-0--3-3-3-3-3-3---|(x4)
      . . . . . .               . . . . . .


[Pre-Chorus]

A#|---------------------------------------------------------------------------------------------|
G |---------------------------------------------------------------------------------------------|
D#|---------------------------------------------------------------------------------------------|
A#|---------------------------------------------------------------------------------------------|
F |--------5h4------------------------------------------5h4-------------------------------------|
A#|--0-0-0-----5h4--3b--0-0-0-0-0-0-0-0-0-0-0-0---0-0-0-----5h4--3b--0-0-0-0-0-0--3h5-5-3h5-5---|(x2)
     . . .              . . . . . . . . . . . .   . . .              . . . . . .


[Chorus]

A#|-------------------------------------------------------|
G |-------------------------------------------------------|
D#|-------------------------------------------------------|
A#|--0--0--0-0-0--0--0--0-0-0--0--0--0-0-0--0--0--0-0-0---|
F |--0--0--0-0-0--0--0--0-0-0--0--0--0-0-0--0--0--0-0-0---|
A#|--0--0--0-0-0--0--0--0-0-0--0--0--0-0-0--0--0--0-0-0---|
          . . .        . . .        . . .        . . .

A#|-------------------------------------------------------|
G |-------------------------------------------------------|
D#|-------------------------------------------------------|
A#|--3--3--3-3-3--3--3--3-3-3--3--3--3-3-3--3--3--3-3-3---|
F |--3--3--3-3-3--3--3--3-3-3--3--3--3-3-3--3--3--3-3-3---|
A#|--3--3--3-3-3--3--3--3-3-3--3--3--3-3-3--3--3--3-3-3---|
          . . .        . . .        . . .        . . .

A#|-------------------------------------------------------|
G |-------------------------------------------------------|
D#|-------------------------------------------------------|
A#|--5--5--5-5-5--5--5--5-5-5--3--3--3-3-3--3--3--3-3-3---|
F |--5--5--5-5-5--5--5--5-5-5--3--3--3-3-3--3--3--3-3-3---|
A#|--5--5--5-5-5--5--5--5-5-5--3--3--3-3-3--3--3--3-3-3---|
          . . .        . . .        . . .        . . .

A#|-----------------------------|
G |-----------------------------|
D#|-----------------------------|
A#|--0--0--0-0-0--0--0--0-0-0---|
F |--0--0--0-0-0--0--0--0-0-0---|
A#|--0--0--0-0-0--0--0--0-0-0---|
          . . .        . . .

A#|---------------------------------|
G |---------------------------------|
D#|---------------------------------|
A#|---------------------------------|
F |--3h5-5-5-5h3h0--3h5-5-5-5h3h0---|
A#|---------------------------------|(x2)



[Verse]

A#|---------------------------------------------------------------------------------------------|
G |---------------------------------------------------------------------------------------------|
D#|---------------------------------------------------------------------------------------------|
A#|---------------------------------------------------------------------------------------------|
F |--------5h4------------------------------------------5h4-------------------------------------|
A#|--0-0-0-----5h4--3b--0-0-0-0-0-0-0-0-0-0-0-0---0-0-0-----5h4--3b--0-0-0-0-0-0--3h5-5-3h5-5---|(x2)
     . . .              . . . . . . . . . . . .   . . .              . . . . . .

A#|--------------------------------------------------------|
G |--------------------------------------------------------|
D#|----------------7-7-7-7-7-7-----------------------------|
A#|---0-0-0-0-0-0--7-7-7-7-7-7--0-0-0-0-0-0--3-3-3-3-3-3---|
F |---0-0-0-0-0-0--5-5-5-5-5-5--0-0-0-0-0-0--3-3-3-3-3-3---|
A#|---0-0-0-0-0-0---------------0-0-0-0-0-0--3-3-3-3-3-3---|(x4)
      . . . . . .               . . . . . .


[Pre-Chorus]

A#|---------------------------------------------------------------------------------------------|
G |---------------------------------------------------------------------------------------------|
D#|---------------------------------------------------------------------------------------------|
A#|---------------------------------------------------------------------------------------------|
F |--------5h4------------------------------------------5h4-------------------------------------|
A#|--0-0-0-----5h4--3b--0-0-0-0-0-0-0-0-0-0-0-0---0-0-0-----5h4--3b--0-0-0-0-0-0--3h5-5-3h5-5---|(x2)
     . . .              . . . . . . . . . . . .   . . .              . . . . . .


[Chorus]

A#|-------------------------------------------------------|
G |-------------------------------------------------------|
D#|-------------------------------------------------------|
A#|--0--0--0-0-0--0--0--0-0-0--0--0--0-0-0--0--0--0-0-0---|
F |--0--0--0-0-0--0--0--0-0-0--0--0--0-0-0--0--0--0-0-0---|
A#|--0--0--0-0-0--0--0--0-0-0--0--0--0-0-0--0--0--0-0-0---|
          . . .        . . .        . . .        . . .

A#|-------------------------------------------------------|
G |-------------------------------------------------------|
D#|-------------------------------------------------------|
A#|--3--3--3-3-3--3--3--3-3-3--3--3--3-3-3--3--3--3-3-3---|
F |--3--3--3-3-3--3--3--3-3-3--3--3--3-3-3--3--3--3-3-3---|
A#|--3--3--3-3-3--3--3--3-3-3--3--3--3-3-3--3--3--3-3-3---|
          . . .        . . .        . . .        . . .

A#|-------------------------------------------------------|
G |-------------------------------------------------------|
D#|-------------------------------------------------------|
A#|--5--5--5-5-5--5--5--5-5-5--3--3--3-3-3--3--3--3-3-3---|
F |--5--5--5-5-5--5--5--5-5-5--3--3--3-3-3--3--3--3-3-3---|
A#|--5--5--5-5-5--5--5--5-5-5--3--3--3-3-3--3--3--3-3-3---|
          . . .        . . .        . . .        . . .

A#|-----------------------------|
G |-----------------------------|
D#|-----------------------------|
A#|--0--0--0-0-0--0--0--0-0-0---|
F |--0--0--0-0-0--0--0--0-0-0---|
A#|--0--0--0-0-0--0--0--0-0-0---|
          . . .        . . .

A#|---------------------------------|
G |---------------------------------|
D#|---------------------------------|
A#|---------------------------------|
F |--3h5-5-5-5h3h0--3h5-5-5-5h3h0---|
A#|---------------------------------|(x2)


[Bridge]

A#|------------------------------|
G |------------------------------|
D#|------------------------------|
A#|--0-------0-------0-------0---|
F |--0-------0-------0-------0---|
A#|--0-------0-------0-------0---|


A#|----------------------------------------------------------------------|
G |----------------------------------------------------------------------|
D#|----------------------------------------------------------------------|
A#|----------------------------------------------------------------------|
F |----------------------------------------------------------------------|
A#|--0-0-0--0-0-0--12-12-12-12-12-12--0-0-0--0-0-0--13-13-13--10-10-10---|

A#|--------------------------------------------------------------------|
G-|--------------------------------------------------------------------|
D#|--------------------------------------------------------------------|
A#|--------------------------------------------------------------------|
F-|--------------------------------------------------------------------|
A#|--0-0-0--0-0-0--12-12-12-12-12-12--3-3-3-3-3-3--10-10-10-10-10-10---|(x4)

A#|------|
G |------|
D#|------|
A#|--0---|
F |--0---|
A#|--0---|


[Chorus]

A#|-------------------------------------------------------|
G |-------------------------------------------------------|
D#|-------------------------------------------------------|
A#|--0--0--0-0-0--0--0--0-0-0--0--0--0-0-0--0--0--0-0-0---|
F |--0--0--0-0-0--0--0--0-0-0--0--0--0-0-0--0--0--0-0-0---|
A#|--0--0--0-0-0--0--0--0-0-0--0--0--0-0-0--0--0--0-0-0---|
           . . .        . . .        . . .        . . .

A#|-------------------------------------------------------|
G |-------------------------------------------------------|
D#|-------------------------------------------------------|
A#|--3--3--3-3-3--3--3--3-3-3--3--3--3-3-3--3--3--3-3-3---|
F |--3--3--3-3-3--3--3--3-3-3--3--3--3-3-3--3--3--3-3-3---|
A#|--3--3--3-3-3--3--3--3-3-3--3--3--3-3-3--3--3--3-3-3---|
           . . .        . . .        . . .        . . .

A#|-------------------------------------------------------|
G |-------------------------------------------------------|
D#|-------------------------------------------------------|
A#|--5--5--5-5-5--5--5--5-5-5--3--3--3-3-3--3--3--3-3-3---|
F |--5--5--5-5-5--5--5--5-5-5--3--3--3-3-3--3--3--3-3-3---|
A#|--5--5--5-5-5--5--5--5-5-5--3--3--3-3-3--3--3--3-3-3---|
           . . .        . . .        . . .        . . .

A#|-----------------------------|
G |-----------------------------|
D#|-----------------------------|
A#|--0--0--0-0-0--0--0--0-0-0---|
F |--0--0--0-0-0--0--0--0-0-0---|
A#|--0--0--0-0-0--0--0--0-0-0---|
           . . .        . . .

A#|---------------------------------|
G |---------------------------------|
D#|---------------------------------|
A#|---------------------------------|
F |--3h5-5-5-5h3h0--3h5-5-5-5h3h0---|
A#|---------------------------------|(x2)


[Outro]

A#|---------------------------------------------------------------------------------------------|
G |---------------------------------------------------------------------------------------------|
D#|---------------------------------------------------------------------------------------------|
A#|---------------------------------------------------------------------------------------------|
F |--------5h4------------------------------------------5h4-------------------------------------|
A#|--0-0-0-----5h4--3b--0-0-0-0-0-0-0-0-0-0-0-0---0-0-0-----5h4--3b--0-0-0-0-0-0--3h5-5-3h5-5---|(x2)
     . . .              . . . . . . . . . . . .   . . .              . . . . . .

A#|------|
G |------|
D#|------|
A#|--0---|
F |--0---|
A#|--0---|


5. I Ain't Got Time To Bleed


[Intro]

D|----------------------------------------------------------------|
A|----------------------------------------------------------------|
F|----------------------------------------------------------------|
C|--0---5-5-5-5-4--4--4---3----5-----0---5-5-5-5-4---4---3----5---|
G|--0---------------------3----5-----0-------------------3----5---|
C|--0---------------------3----5-----0-------------------3----5---|


D|----------------------------------------------------------------|
A|----------------------------------------------------------------|
F|----------------------------------------------------------------|
C|--0---5-5-5-5-4--4--4--4-4-4---3--3-3--3-3-3--5--5-5------------|
G|--0----------------------------3--3-3--3-3-3--5--5-5--------3---|
C|--0----------------------------3--3-3--3-3-3--5--5-5--0-3-5-----|


D|------------------------------------------------------------------|
A|------------------------------------------------------------------|
F|------------------------------------------------------------------|
C|--0---5-5-5-5-4--4--4--4-4-4---3--3-3--3-3-3--5--5-5--------------|
G|--0----------------------------3--3-3--3-3-3--5--5-5--------3-----|
C|--0----------------------------3--3-3--3-3-3--5--5-5--0-3-5---0---|


[Verse]

D|---------------------------------|
A|---------------------------------|
F|--------------------------7--7---|
C|--6-------------------0---7--7---|
G|--6-------------------0---5--5---|
C|--6-5-0-5-3-0-3-5-5-5-0----------|(x3)
      . . . . . . . . .            

D|---------------------------------|
A|---------------------------------|
F|---------------------------------|
C|--6-------------------0--0-0-0---|
G|--6-------------------0--0-0-0---|
C|--6-5-0-5-3-0-3-5-5-5-0--0-0-0---|
      . . . . . . . . .    . . .

D|-------------------------------------------------------|
A|-------------------------------------------------------|
F|-------------------------------------------------------|
C|--0-0-0-0-0-0-0-0-0-0-0-0-0-0-0-0--6~---5~---3~---5~---|
G|--0-0-0-0-0-0-0-0-0-0-0-0-0-0-0-0----------------------|
C|--0-0-0-0-0-0-0-0-0-0-0-0-0-0-0-0----------------------|(x2)
      . . . . . . . . . . . . . . .


[Pre-Chorus]

D|---------------------------------------------------------------|
A|---------------------------------------------------------------|
F|---------------------------------------------------------------|
C|--3---3---3--3-3-3-3--3-3-3--2---2---2-2-2-2-------------------|
G|--3---3---3--3-3-3-3--3-3-3--2---2---2-2-2-2-------------3-----|
C|--3---3---3--3-3-3-3--3-3-3--2---2---2-2-2-2---5-5-0-3-5---0---|


[Chorus]

D|----------------------------------------------------------------|
A|----------------------------------------------------------------|
F|----------------------------------------------------------------|
C|--0---5-5-5-5-4--4--4--4-4-4---3--3-3--3-3-3--5--5-5------------|
G|--0----------------------------3--3-3--3-3-3--5--5-5--------3---|
C|--0----------------------------3--3-3--3-3-3--5--5-5--0-3-5-----|(x3)

D|-------------------------------------------------------------------|
A|-------------------------------------------------------------------|
F|-------------------------------------------------------------------|
C|--0---5-5-5-5-4--4--4--4-4-4---3--3-3--3-3-3--5--5-5-----------0---|
G|--0----------------------------3--3-3--3-3-3--5--5-5--------3--0---|
C|--0----------------------------3--3-3--3-3-3--5--5-5--0-3-5----0---|


[Verse]

D|---------------------------------|
A|---------------------------------|
F|--------------------------7--7---|
C|--6-------------------0---7--7---|
G|--6-------------------0---5--5---|
C|--6-5-0-5-3-0-3-5-5-5-0----------|(x3)
      . . . . . . . . .            

D|---------------------------------|
A|---------------------------------|
F|---------------------------------|
C|--6-------------------0--0-0-0---|
G|--6-------------------0--0-0-0---|
C|--6-5-0-5-3-0-3-5-5-5-0--0-0-0---|
      . . . . . . . . .    . . .

D|-------------------------------------------------------|
A|-------------------------------------------------------|
F|-------------------------------------------------------|
C|--0-0-0-0-0-0-0-0-0-0-0-0-0-0-0-0--6~---5~---3~---5~---|
G|--0-0-0-0-0-0-0-0-0-0-0-0-0-0-0-0----------------------|
C|--0-0-0-0-0-0-0-0-0-0-0-0-0-0-0-0----------------------|(x2)
      . . . . . . . . . . . . . . .


[Pre-Chorus]

D|---------------------------------------------------------------|
A|---------------------------------------------------------------|
F|---------------------------------------------------------------|
C|--3---3---3--3-3-3-3--3-3-3--2---2---2-2-2-2-------------------|
G|--3---3---3--3-3-3-3--3-3-3--2---2---2-2-2-2-------------3-----|
C|--3---3---3--3-3-3-3--3-3-3--2---2---2-2-2-2---5-5-0-3-5---0---|


[Chorus]


D|----------------------------------------------------------------|
A|----------------------------------------------------------------|
F|----------------------------------------------------------------|
C|--0---5-5-5-5-4--4--4--4-4-4---3--3-3--3-3-3--5--5-5------------|
G|--0----------------------------3--3-3--3-3-3--5--5-5--------3---|
C|--0----------------------------3--3-3--3-3-3--5--5-5--0-3-5-----|(x3)

D|-------------------------------------------------------------------|
A|-------------------------------------------------------------------|
F|-------------------------------------------------------------------|
C|--0---5-5-5-5-4--4--4--4-4-4---3--3-3--3-3-3--5--5-5-----------0---|
G|--0----------------------------3--3-3--3-3-3--5--5-5--------3--0---|
C|--0----------------------------3--3-3--3-3-3--5--5-5--0-3-5----0---|


[Bridge]

D|--------------------------------|
A|--------------------------------|
F|--------------------------------|
C|--3--------5-------5-5--5-5-5---|
G|--3--------5-------5-5--5-5-5---|
C|--3--------5-------5-5--5-5-5---|(x3)


D|-------------------------|
A|-------------------------|
F|-------------------------|
C|--3----7-7-7-7-7-7-7-7---|
G|--3----7-7-7-7-7-7-7-7---|
C|--3----7-7-7-7-7-7-7-7---|


D|----------------------------------------------------------------|
A|----------------------------------------------------------------|
F|----------------------------------------------------------------|
C|--0---5-5-5-5-4--4--4--4-4-4---3--3-3--3-3-3--5--5-5------------|
G|--0----------------------------3--3-3--3-3-3--5--5-5--------3---|
C|--0----------------------------3--3-3--3-3-3--5--5-5--0-3-5-----|(x4)


D|--------------------------------------------------------------|
A|--------------------------------------------------------------|
F|--------------------------------------------------------------|
C|--0---5-5-5-5-4--4--4--4-4-4---3--3-3--3-3-3--5--5-5--5-5-5---|
G|--0----------------------------3--3-3--3-3-3--5--5-5--5-5-5---|
C|--0----------------------------3--3-3--3-3-3--5--5-5--5-5-5---|(x2)


[Chorus]

D|----------------------------------------------------------------|
A|----------------------------------------------------------------|
F|----------------------------------------------------------------|
C|--0---5-5-5-5-4--4--4--4-4-4---3--3-3--3-3-3--5--5-5------------|
G|--0----------------------------3--3-3--3-3-3--5--5-5--------3---|
C|--0----------------------------3--3-3--3-3-3--5--5-5--0-3-5-----|(x3)

D|-------------------------------------------------------------------|
A|-------------------------------------------------------------------|
F|-------------------------------------------------------------------|
C|--0---5-5-5-5-4--4--4--4-4-4---3--3-3--3-3-3--5--5-5-----------0---|
G|--0----------------------------3--3-3--3-3-3--5--5-5--------3--0---|
C|--0----------------------------3--3-3--3-3-3--5--5-5--0-3-5----0---|


[Outro]

D|---------------------------------|
A|---------------------------------|
F|--------------------------7--7---|
C|--6-------------------0---7--7---|
G|--6-------------------0---5--5---|
C|--6-5-0-5-3-0-3-5-5-5-0----------| (x3)
      . . . . . . . . .            

D|------------------------------------|
A|------------------------------------|
F|------------------------------------|
C|--6-------------------0--0-0-0--0---|
G|--6-------------------0--0-0-0--0---|
C|--6-5-0-5-3-0-3-5-5-5-0--0-0-0--0---|
      . . . . . . . . .    . . .


6. Bloodline 666


[There is no guitar in this song]



7. Serpent Society



[Intro/Verse]

C#|-------------------------------------------------------------------|
G#|-------------------------------------------------------------------|
E |-------------------------------------------------------------------|
B |---6/8-8-8-8-8-8-8-8-8-8-8-8-8-8-9-8-8-8-8-8-8-8-8-8-8-8-8-8-8-8---|
F#|---6/8-8-8-8-8-8-8-8-8-8-8-8-8-8-9-8-8-8-8-8-8-8-8-8-8-8-8-8-8-8---|
B |---6/8-8-8-8-8-8-8-8-8-8-8-8-8-8-9-8-8-8-8-8-8-8-8-8-8-8-8-8-8-8---|(x6)


[Chorus]

C#|-----------------------------------------------------|
G#|-----------------------------------------------------|
E |-----------------------------------------------------|
B |---4-4-4-4-4-4-4-4-4-4-4-4-4-4-4-4-4-4-4-4-6-6-6-6---|
F#|---4-4-4-4-4-4-4-4-4-4-4-4-4-4-4-4-4-4-4-4-6-6-6-6---|
B-|---4-4-4-4-4-4-4-4-4-4-4-4-4-4-4-4-4-4-4-4-6-6-6-6---|

C#|-------------------------------------------------------------------|
G#|-------------------------------------------------------------------|
E |-------------------------------------------------------------------|
B |---6/8-8-8-8-8-8-8-8-8-8-8-8-8-8-9-8-8-8-8-8-8-8-8-8-8-8-8-8-8-8---|
F#|---6/8-8-8-8-8-8-8-8-8-8-8-8-8-8-9-8-8-8-8-8-8-8-8-8-8-8-8-8-8-8---|
B-|---6/8-8-8-8-8-8-8-8-8-8-8-8-8-8-9-8-8-8-8-8-8-8-8-8-8-8-8-8-8-8---|

C#|-----------------------------------------------------|
G#|-----------------------------------------------------|
E |-----------------------------------------------------|
B |---4-4-4-4-4-4-4-4-4-4-4-4-4-4-4-4-4-4-4-4-6-6-6-6---|
F#|---4-4-4-4-4-4-4-4-4-4-4-4-4-4-4-4-4-4-4-4-6-6-6-6---|
B |---4-4-4-4-4-4-4-4-4-4-4-4-4-4-4-4-4-4-4-4-6-6-6-6---|

C#|------------------------------------------------------|
G#|------------------------------------------------------|
E |------------------------------------------------------|
B |---3-3-3-3-3-3-3-3-3-3-3-3-3-3-3-3-3-3-3-3--6-6-6-6---|
F#|---3-3-3-3-3-3-3-3-3-3-3-3-3-3-3-3-3-3-3-3--6-6-6-6---|
B |---3-3-3-3-3-3-3-3-3-3-3-3-3-3-3-3-3-3-3-3--6-6-6-6---|


C#|-----------------------------------------------------------------------------|
G#|-----------------------------------------------------------------------------|
E |-----------------------------------------------------------------------------|
B |---6/8-8-8-8-8-8-8-8-8-8-8-8-8-8-9-8-8-8-8-11-11-11-11-10-10-10-10-9-9-9-9---|
F#|---6/8-8-8-8-8-8-8-8-8-8-8-8-8-8-9-8-8-8-8-11-11-11-11-10-10-10-10-9-9-9-9---|
B |---6/8-8-8-8-8-8-8-8-8-8-8-8-8-8-9-8-8-8-8-11-11-11-11-10-10-10-10-9-9-9-9---|(4x)


[Bridge]

C#|-----------------------------|
G#|-----------------------------|
E |-----------------------------|
B |---0-0--2--3--0-2-3---5/8b---|
F#|---0-0--2--3--0-2-3----------|
B |---0-0--2--3--0-2-3----------|(x3)
      . .        .

C#|--------------------------------|
G#|--------------------------------|
E |--------------------------------|
B |---0-0--2--3--0-2-3-------------|
F#|---0-0--2--3--0-2-3-------------|
B |---0-0--2--3--0-2-3---2/1/2/1---|
      . .        .

C#|-----------------------------|
G#|-----------------------------|
E |-----------------------------|
B |---0-0--2--3--0-2-3---5/8b---|
F#|---0-0--2--3--0-2-3----------|
B |---0-0--2--3--0-2-3----------|(x3)
      . .        .

C#|--------------------------------|
G#|--------------------------------|
E |--------------------------------|
B |---0-0--2--3--0-2-3-------------|
F#|---0-0--2--3--0-2-3-------------|
B |---0-0--2--3--0-2-3---2/1/2/1---|
      . .        .

C#|-----------------------------|
G#|-----------------------------|
E |-----------------------------|
B |---0-0--2--3--0-2-3---5/8b---|
F#|---0-0--2--3--0-2-3----------|
B |---0-0--2--3--0-2-3----------|(x3)
      . .        .

C#|--------------------------------|
G#|--------------------------------|
E |--------------------------------|
B |---0-0--2--3--0-2-3-------------|
F#|---0-0--2--3--0-2-3-------------|
B |---0-0--2--3--0-2-3---2/1/2/1---|
      . .        .


[Chorus]

C#|-----------------------------------------------------|
G#|-----------------------------------------------------|
E |-----------------------------------------------------|
B |---4-4-4-4-4-4-4-4-4-4-4-4-4-4-4-4-4-4-4-4-6-6-6-6---|
F#|---4-4-4-4-4-4-4-4-4-4-4-4-4-4-4-4-4-4-4-4-6-6-6-6---|
B-|---4-4-4-4-4-4-4-4-4-4-4-4-4-4-4-4-4-4-4-4-6-6-6-6---|

C#|-------------------------------------------------------------------|
G#|-------------------------------------------------------------------|
E |-------------------------------------------------------------------|
B |---6/8-8-8-8-8-8-8-8-8-8-8-8-8-8-9-8-8-8-8-8-8-8-8-8-8-8-8-8-8-8---|
F#|---6/8-8-8-8-8-8-8-8-8-8-8-8-8-8-9-8-8-8-8-8-8-8-8-8-8-8-8-8-8-8---|
B-|---6/8-8-8-8-8-8-8-8-8-8-8-8-8-8-9-8-8-8-8-8-8-8-8-8-8-8-8-8-8-8---|

C#|-----------------------------------------------------|
G#|-----------------------------------------------------|
E |-----------------------------------------------------|
B |---4-4-4-4-4-4-4-4-4-4-4-4-4-4-4-4-4-4-4-4-6-6-6-6---|
F#|---4-4-4-4-4-4-4-4-4-4-4-4-4-4-4-4-4-4-4-4-6-6-6-6---|
B |---4-4-4-4-4-4-4-4-4-4-4-4-4-4-4-4-4-4-4-4-6-6-6-6---|

C#|------------------------------------------------------|
G#|------------------------------------------------------|
E |------------------------------------------------------|
B |---3-3-3-3-3-3-3-3-3-3-3-3-3-3-3-3-3-3-3-3--6-6-6-6---|
F#|---3-3-3-3-3-3-3-3-3-3-3-3-3-3-3-3-3-3-3-3--6-6-6-6---|
B |---3-3-3-3-3-3-3-3-3-3-3-3-3-3-3-3-3-3-3-3--6-6-6-6---|


[Outro]

C#|-----------------------------------------------------------------------------|
G#|-----------------------------------------------------------------------------|
E |-----------------------------------------------------------------------------|
B |---6/8-8-8-8-8-8-8-8-8-8-8-8-8-8-9-8-8-8-8-11-11-11-11-10-10-10-10-9-9-9-9---|
F#|---6/8-8-8-8-8-8-8-8-8-8-8-8-8-8-9-8-8-8-8-11-11-11-11-10-10-10-10-9-9-9-9---|
B |---6/8-8-8-8-8-8-8-8-8-8-8-8-8-8-9-8-8-8-8-11-11-11-11-10-10-10-10-9-9-9-9---|(4x)



8. Bombs, Guns, Gods This Is A War


[Intro]

D|---------------------------------------|
A|---------------------------------------|
F|---------------------------------------|
C|--------0------------------------------|
G|------3--3-----------------------------|
C|--0-1------1---0---0-0--0-0-0--0-0-0---|(x3)
                     . .  . . .  . . .

D|--------------------------------------------|
A|--------------------------------------------|
F|--------------------------------------------|
C|--------0---------------------------6---5---|
G|------3--3--------------------------6---5---|
C|--0-1------1---0---0-0--0-0-0--0-0--6---5---|
                     . .  . . .  . .

[Verse]

D|---------------------------------------|
A|---------------------------------------|
F|---------------------------------------|
C|--------0------------------------------|
G|------3--3-----------------------------|
C|--0-1------1---0---0-0--0-0-0--0-0-0---|(x2)
                     . .  . . .  . . .

D|--------------------------------------------|
A|--------------------------------------------|
F|--------------------------------------------|
C|--------0---------------------------6---5---|
G|------3--3--------------------------6---5---|
C|--0-1------1---0---0-0--0-0-0--0-0--6---5---|
                     . .  . . .  . .

[Pre-Chorus]

D|----------------------------------------------------------------------------|
A|----------------------------------------------------------------------------|
F|----------------------------------------------------------------------------|
C|--3--3-3-3-3-3--3---3-3---3--3-3---5---5-5-5-5-5-5---6---6----6---6---6-6---|
G|--3--3-3-3-3-3--3---3-3---3--3-3---5---5-5-5-5-5-5---6---6----6---6---6-6---|
C|--3--3-3-3-3-3--3---3-3---3--3-3---5---5-5-5-5-5-5---6---6----6---6---6-6---|


[Chorus]

D|---------------------|
A|---------------------|
F|---------------------|
C|--0----3----2----5---|
G|--0----3----2----5---|
C|--0----3----2----5---|(x3)


D|------------------------------------------------|
A|------------------------------------------------|
F|------------------------------------------------|
C|--0----3----2----5---5---5---5--5---5---5---5---|
G|--0----3----2----5---5---5---5--5---5---5---5---|
C|--0----3----2----5---5---5---5--5---5---5---5---|


[Verse]

D|---------------------------------------|
A|---------------------------------------|
F|---------------------------------------|
C|--------0------------------------------|
G|------3--3-----------------------------|
C|--0-1------1---0---0-0--0-0-0--0-0-0---|(x3)
                     . .  . . .  . . .

D|--------------------------------------------|
A|--------------------------------------------|
F|--------------------------------------------|
C|--------0---------------------------6---5---|
G|------3--3--------------------------6---5---|
C|--0-1------1---0---0-0--0-0-0--0-0--6---5---|
                     . .  . . .  . .

D|---------------------------------------|
A|---------------------------------------|
F|---------------------------------------|
C|--------0------------------------------|
G|------3--3-----------------------------|
C|--0-1------1---0---0-0--0-0-0--0-0-0---|(x2)
                     . .  . . .  . . .

D|--------------------------------------------|
A|--------------------------------------------|
F|--------------------------------------------|
C|--------0---------------------------6---5---|
G|------3--3--------------------------6---5---|
C|--0-1------1---0---0-0--0-0-0--0-0--6---5---|
                     . .  . . .  . .


[Pre-Chorus]

D|----------------------------------------------------------------------------|
A|----------------------------------------------------------------------------|
F|----------------------------------------------------------------------------|
C|--3--3-3-3-3-3--3---3-3---3--3-3---5---5-5-5-5-5-5---6---6----6---6---6-6---|
G|--3--3-3-3-3-3--3---3-3---3--3-3---5---5-5-5-5-5-5---6---6----6---6---6-6---|
C|--3--3-3-3-3-3--3---3-3---3--3-3---5---5-5-5-5-5-5---6---6----6---6---6-6---|


[Chorus]

D|---------------------|
A|---------------------|
F|---------------------|
C|--0----3----2----5---|
G|--0----3----2----5---|
C|--0----3----2----5---|(x3)


D|------------------------------------------------|
A|------------------------------------------------|
F|------------------------------------------------|
C|--0----3----2----5---5---5---5--5---5---5---5---|
G|--0----3----2----5---5---5---5--5---5---5---5---|
C|--0----3----2----5---5---5---5--5---5---5---5---|


[Bridge]

D|-------------|
A|-------------|
F|-------------|
C|--0------0---|
G|--0------0---|
C|--0------0---|


D|----------------------------------------------------------------------|
A|----------------------------------------------------------------------|
F|----------------------------------------------------------------------|
C|----------------------------------------------------------------------|
G|----------------------------------------------------3-3-3-3-3-3-3-3---|
C|--0-0-0-0-1-0-0-0-0-0-0-0-1-0-0-0--1-1-1-1-1-1-1-1--------------------|(x7)


D|-------------------------------------------|
A|-------------------------------------------|
F|-------------------------------------------|
C|-----------------------------------6---5---|
G|-----------------------------------6---5---|
C|--0-0-0-0-1-0-0-0-0-0-0-0-1-0-0-0--6---5---|


[Pre-Chorus]

D|----------------------------------------------------------------------------|
A|----------------------------------------------------------------------------|
F|----------------------------------------------------------------------------|
C|--3--3-3-3-3-3--3---3-3---3--3-3---5---5-5-5-5-5-5---6---6----6---6---6-6---|
G|--3--3-3-3-3-3--3---3-3---3--3-3---5---5-5-5-5-5-5---6---6----6---6---6-6---|
C|--3--3-3-3-3-3--3---3-3---3--3-3---5---5-5-5-5-5-5---6---6----6---6---6-6---|


[Chorus]

D|---------------------|
A|---------------------|
F|---------------------|
C|--0----3----2----5---|
G|--0----3----2----5---|
C|--0----3----2----5---|(x3)


D|------------------------------------------------|
A|------------------------------------------------|
F|------------------------------------------------|
C|--0----3----2----5---5---5---5--5---5---5---5---|
G|--0----3----2----5---5---5---5--5---5---5---5---|
C|--0----3----2----5---5---5---5--5---5---5---5---|


[Outro]

D|-------------------|
A|-------------------|
F|-------------------|
C|--------0------0---|
G|------3--3-----0---|
C|--0-1------1---0---|



9. Planet Eater Interstellar 187


[Intro]

D|------------------------------------------------------|
A|------------------------------------------------------|
F|------------------------------------------------------|
C|------------------------------------------------------|
G|------------------------------------------------------|
C|--0-12-13-0-16-13-12/13-------0-12-13-0-16-13-12/13---|

D|-----------------------------------------------------------------------------------------------|
A|-----------------------------------------------------------------------------------------------|
F|-----------------------------------------------------------------------------------------------|
C|-----------------------------------------------------------------------------------------------|
G|-----------------------------------------------------------------------------------------------|
C|--0-12-13-0-16-13-12/13--0-12-13-0-16-13-12/13--0-12-13-0-16-13-12/13--0-12-13-0-16-13-12/13---|


[Verse]

D|-------------------------------------------------------------------------------------|
A|-------------------------------------------------------------------------------------|
F|-------------------------------------------------------------------------------------|
C|-------------------------------------------------------------------------------------|
G|-------------------------------------------------------------------------------------|
C|--7-7-7-7-7-7-7--6-6-6-6-6--3-3-3-3-3-3-3-3-3--6-6-6-6-6-6-6--2-2-2-2-2--3-3-3-3-3---|


D|--------------------------------------------------------------------|
A|--------------------------------------------------------------------|
F|--------------------------------------------------------------------|
C|--------------------------------------------------------------------|
G|--------------------------------------------------------------------|
C|--0-0-0-0-0-0-0-0--0-0-0--0-0-0-0-0-0-0-0--0-0-0--0-0-0-0-0-0-0-0---|
    . . . . . . . .  . . .  . . . . . . . .  . . .  . . . . . . . .

D|-----------------------------------------|
A|-----------------------------------------|
F|-----------------------------------------|
C|-----------------------------------------|
G|-------------------------------6-3-------|
C|--0-0-0--0-0-0-0-0-0-0-0-0-0-0-----6-3---|(x2)
    . . .  . . . . . . . . . . .


D|-------------------------------------------------------------------------------------|
A|-------------------------------------------------------------------------------------|
F|-------------------------------------------------------------------------------------|
C|-------------------------------------------------------------------------------------|
G|-------------------------------------------------------------------------------------|
C|--7-7-7-7-7-7-7--6-6-6-6-6--3-3-3-3-3-3-3-3-3--6-6-6-6-6-6-6--2-2-2-2-2--3-3-3-3-3---|(x2)


D|--------------------------------------------------------------------|
A|--------------------------------------------------------------------|
F|--------------------------------------------------------------------|
C|--------------------------------------------------------------------|
G|--------------------------------------------------------------------|
C|--0-0-0-0-0-0-0-0--0-0-0--0-0-0-0-0-0-0-0--0-0-0--0-0-0-0-0-0-0-0---|
    . . . . . . . .  . . .  . . . . . . . .  . . .  . . . . . . . .

D|-----------------------------------------|
A|-----------------------------------------|
F|-----------------------------------------|
C|-----------------------------------------|
G|-------------------------------6-3-------|
C|--0-0-0--0-0-0-0-0-0-0-0-0-0-0-----6-3---|(x2)
    . . .  . . . . . . . . . . .


[Pre-Chorus]

D|-------------------------------------------------------------------------------------|
A|-------------------------------------------------------------------------------------|
F|-------------------------------------------------------------------------------------|
C|-------------------------------------------------------------------------------------|
G|-------------------------------------------------------------------------------------|
C|--7-7-7-7-7-7-7--6-6-6-6-6--3-3-3-3-3-3-3-3-3--6-6-6-6-6-6-6--2-2-2-2-2--3-3-3-3-3---| (x2)


[Chorus]


D|------------------------------------------------------------------|
A|------------------------------------------------------------------|
F|------------------------------------------------------------------|
C|--0-0-1--4---0-1-0-1--4--1---0-0-1--4--0--------------------------|
G|--0-0-1--4---0-1-0-1--4--1---0-0-1--4--0--------------------------|
C|--0-0-1--4---0-1-0-1--4--1---0-0-1--4--0--0-12-13-0-16-13-12/13---| (x4)
    . .        .   .           . .       . 

D|------------------------------------------------------------------------|
A|------------------------------------------------------------------------|
F|------------------------------------------------------------------------|
C|------------------------------------------------------------------------|
G|------------------------------------------------------------------------|
C|--0-12-13-0-16-13-12/13--0-12-13-0-16-13-12/13--0-12-13-0-16-13-12/13---|


[Bridge]


D|------------------------------------------------------------------|
A|------------------------------------------------------------------|
F|------------------------------------------------------------------|
C|--0-0-1--4---0-1-0-1--4--1---0-0-1--4--0--------------------------|
G|--0-0-1--4---0-1-0-1--4--1---0-0-1--4--0--------------------------|
C|--0-0-1--4---0-1-0-1--4--1---0-0-1--4--0--0-12-13-0-16-13-12/13---| (x4)
    . .        .   .           . .       . 

D|------------------------------------------------------------------------|
A|------------------------------------------------------------------------|
F|------------------------------------------------------------------------|
C|------------------------------------------------------------------------|
G|------------------------------------------------------------------------|
C|--0-12-13-0-16-13-12/13--0-12-13-0-16-13-12/13--0-12-13-0-16-13-12/13---|

D|-------------|
A|-------------|
F|-------------|
C|--7--6--3~---|
G|-------------|
C|-------------|


[Pre-Chorus]


D|-------------------------------------------------------------------------------------|
A|-------------------------------------------------------------------------------------|
F|-------------------------------------------------------------------------------------|
C|-------------------------------------------------------------------------------------|
G|-------------------------------------------------------------------------------------|
C|--7-7-7-7-7-7-7--6-6-6-6-6--3-3-3-3-3-3-3-3-3--6-6-6-6-6-6-6--2-2-2-2-2--3-3-3-3-3---| (x2)


[Chorus]


D|------------------------------------------------------------------|
A|------------------------------------------------------------------|
F|------------------------------------------------------------------|
C|--0-0-1--4---0-1-0-1--4--1---0-0-1--4--0--------------------------|
G|--0-0-1--4---0-1-0-1--4--1---0-0-1--4--0--------------------------|
C|--0-0-1--4---0-1-0-1--4--1---0-0-1--4--0--0-12-13-0-16-13-12/13---| (x4)
    . .        .   .           . .       . 

D|------------------------------------------------------------------------|
A|------------------------------------------------------------------------|
F|------------------------------------------------------------------------|
C|------------------------------------------------------------------------|
G|------------------------------------------------------------------------|
C|--0-12-13-0-16-13-12/13--0-12-13-0-16-13-12/13--0-12-13-0-16-13-12/13---|


[Outro]


D|--------------------------------------------------------------------|
A|--------------------------------------------------------------------|
F|--------------------------------------------------------------------|
C|--7-7-7-7-6-6-6-6-3-3-3-3-3-3-3-3-6-6-6-6-6-6-6-6-2-2-2-2-3-3-3-3---|
G|--7-7-7-7-6-6-6-6-3-3-3-3-3-3-3-3-6-6-6-6-6-6-6-6-2-2-2-2-3-3-3-3---|
C|--7-7-7-7-6-6-6-6-3-3-3-3-3-3-3-3-6-6-6-6-6-6-6-6-2-2-2-2-3-3-3-3---|
      . . .   . . .   . . .   . . .   . . .   . . .   . . .   . . .

D|------------------------------------------------------------------------|
A|------------------------------------------------------------------------|
F|------------------------------------------------------------------------|
C|--7-7-7-7-6-6-6-6-3-3-3-3-3-3-3-3-6-6-6-6-6-6-6-6--6-6-6--6-6-6-6-6-6---|
G|--7-7-7-7-6-6-6-6-3-3-3-3-3-3-3-3-6-6-6-6-6-6-6-6--6-6-6--6-6-6-6-6-6---|
C|--7-7-7-7-6-6-6-6-3-3-3-3-3-3-3-3-6-6-6-6-6-6-6-6--6-6-6--6-6-6-6-6-6---| (x3)
      . . .   . . .   . . .   . . .   . . .   . . .  . . .  . .   . . .








10. I Love Watching You Die



[Intro/Verse]:


D|---------------------------------------------------------------------------------------|
A|---------------------------------------------------------------------------------------|
F|---------------------------------------------------------------------------------------|
C|--2--2-2--2--2-2--2-2--2--2-2--2--2-2--2-2--5--5-5--5--5-5--5-5--5--5-5--5--5-5--5-5---|
G|--2--2-2--2--2-2--2-2--2--2-2--2--2-2--2-2--5--5-5--5--5-5--5-5--5--5-5--5--5-5--5-5---|
C|--2--2-2--2--2-2--2-2--2--2-2--2--2-2--2-2--5--5-5--5--5-5--5-5--5--5-5--5--5-5--5-5---| (x2)
       . .     . .    .     . .     . .    .     . .     . .    .     . .     . .    .


[Pre-Chorus]


D|------------------|
A|------------------|
F|------------------|
C|--2----5-----10---|
G|--2----5-----10---|
C|--2----5-----10---| (x2)


[Chorus]


D|-------------------------------------------------------------------------------------------|
A|-------------------------------------------------------------------------------------------|
F|--9-9-9-9--12-12-12-12--11-11-11-11--9-9-9-9--7-7-7-7--12-12-12-12--11-11-11-11--7-7-7-7---|
C|--9-9-9-9--12-12-12-12--11-11-11-11--9-9-9-9--7-7-7-7--12-12-12-12--11-11-11-11--7-7-7-7---|
G|--7-7-7-7--10-10-10-10--9--9--9--9---7-7-7-7--5-5-5-5--10-10-10-10--9--9--9--9---5-5-5-5---|
C|-------------------------------------------------------------------------------------------| (x4)


[Verse]


D|---------------------------------------------------------------------------------------|
A|---------------------------------------------------------------------------------------|
F|---------------------------------------------------------------------------------------|
C|--2--2-2--2--2-2--2-2--2--2-2--2--2-2--2-2--5--5-5--5--5-5--5-5--5--5-5--5--5-5--5-5---|
G|--2--2-2--2--2-2--2-2--2--2-2--2--2-2--2-2--5--5-5--5--5-5--5-5--5--5-5--5--5-5--5-5---|
C|--2--2-2--2--2-2--2-2--2--2-2--2--2-2--2-2--5--5-5--5--5-5--5-5--5--5-5--5--5-5--5-5---| (x6)
       . .     . .    .     . .     . .    .     . .     . .    .     . .     . .    .


[Pre-Chorus]


D|------------------|
A|------------------|
F|------------------|
C|--2----5-----10---|
G|--2----5-----10---|
C|--2----5-----10---| (x2)


[Chorus]


D|-------------------------------------------------------------------------------------------|
A|-------------------------------------------------------------------------------------------|
F|--9-9-9-9--12-12-12-12--11-11-11-11--9-9-9-9--7-7-7-7--12-12-12-12--11-11-11-11--7-7-7-7---|
C|--9-9-9-9--12-12-12-12--11-11-11-11--9-9-9-9--7-7-7-7--12-12-12-12--11-11-11-11--7-7-7-7---|
G|--7-7-7-7--10-10-10-10--9--9--9--9---7-7-7-7--5-5-5-5--10-10-10-10--9--9--9--9---5-5-5-5---|
C|-------------------------------------------------------------------------------------------| (x4)


[Bridge]


D|-------------------------------------------------------------------------------------------|
A|-------------------------------------------------------------------------------------------|
F|--9-9-9-9--12-12-12-12--11-11-11-11--9-9-9-9--7-7-7-7--12-12-12-12--11-11-11-11--7-7-7-7---|
C|--9-9-9-9--12-12-12-12--11-11-11-11--9-9-9-9--7-7-7-7--12-12-12-12--11-11-11-11--7-7-7-7---|
G|--7-7-7-7--10-10-10-10--9--9--9--9---7-7-7-7--5-5-5-5--10-10-10-10--9--9--9--9---5-5-5-5---|
C|-------------------------------------------------------------------------------------------| (x2)


[Pre-Chorus]


D|------------------|
A|------------------|
F|------------------|
C|--2----5-----10---|
G|--2----5-----10---|
C|--2----5-----10---| (x2)


[Chorus]


D|-------------------------------------------------------------------------------------------|
A|-------------------------------------------------------------------------------------------|
F|--9-9-9-9--12-12-12-12--11-11-11-11--9-9-9-9--7-7-7-7--12-12-12-12--11-11-11-11--7-7-7-7---|
C|--9-9-9-9--12-12-12-12--11-11-11-11--9-9-9-9--7-7-7-7--12-12-12-12--11-11-11-11--7-7-7-7---|
G|--7-7-7-7--10-10-10-10--9--9--9--9---7-7-7-7--5-5-5-5--10-10-10-10--9--9--9--9---5-5-5-5---|
C|-------------------------------------------------------------------------------------------| (x4)


[Outro]


D|---------------------------------------------------------------------------------------|
A|---------------------------------------------------------------------------------------|
F|---------------------------------------------------------------------------------------|
C|--2--2-2--2--2-2--2-2--2--2-2--2--2-2--2-2--5--5-5--5--5-5--5-5--5--5-5--5--5-5--5-5---|
G|--2--2-2--2--2-2--2-2--2--2-2--2--2-2--2-2--5--5-5--5--5-5--5-5--5--5-5--5--5-5--5-5---|
C|--2--2-2--2--2-2--2-2--2--2-2--2--2-2--2-2--5--5-5--5--5-5--5-5--5--5-5--5--5-5--5-5---| (x2)
       . .     . .    .     . .     . .    .     . .     . .    .     . .     . .    .


D|----------------------------------|
A|----------------------------------|
F|----------------------------------|
C|--2---5---4---2-------5---4-------|
G|------------------5-----------5---|
C|----------------------------------| (x2)








11. Into The Crop Circle




[Intro]


D|-----------------|
A|-----------------|
F|-----------------|
C|--0-0------0-0---|
G|--0-0------0-0---|
C|--0-0------0-0---|
    . .      . .

D|--------------------------------------|
A|--------------------------------------|
F|------10/9------9/7-----7/5-----5/7---|
C|------x-/x------x/x-----x/x-----x/x---|
G|------8-/7------7/5-----5/3-----3/5---|
C|--0-0------0-0------0-0-----0-0-------|
    . .      . .      . .     . .

D|--------------------------------------------|
A|--------------------------------------------|
F|------10/9------10/9------10/9------10--9---|
C|------x-/x------x-/x------x-/x------x---x---|
G|------8-/7------8-/7------8-/7------8---7---|
C|--0-0-------0-0------0-0-------0-0----------|
    . .       . .      . .       . .


[Verse]


D|--------------------------------------|
A|--------------------------------------|
F|------10/9------9/7-----7/5-----5/7---|
C|------x-/x------x/x-----x/x-----x/x---|
G|------8-/7------7/5-----5/3-----3/5---|
C|--0-0------0-0------0-0-----0-0-------|
    . .      . .      . .     . .


D|---------------------------------------------|
A|---------------------------------------------|
F|---------------------------------------------|
C|--7/8-8-8-8-5-5-5-5/10-10-10-10-10/7-7-7-7---|
G|--7/8-8-8-8-5-5-5-5/10-10-10-10-10/7-7-7-7---|
C|--7/8-8-8-8-5-5-5-5/10-10-10-10-10/7-7-7-7---| (x4)


[Pre-Chorus]


D|-----------------------------------------------------------------------------|
A|---------------------------------------11/10-----11/10-----11/10-----11/10---|
F|-----------------------------------------------------------------------------|
C|--3-3-3-3-3-3-3-3-3-3-3-3-3-5-5-5--------------------------------------------|
G|--3-3-3-3-3-3-3-3-3-3-3-3-3-5-5-5--------------------------------------------|
C|--3-3-3-3-3-3-3-3-3-3-3-3-3-5-5-5--0-0-------0-0-------0-0-------0-0---------|
                                     . .       . .       . .       . .

[Chorus]


D|--------------------------------------------------------------------|
A|--------------------------------------------------------------------|
F|--------------------------------------------------------------------|
C|--3-3-3-3-3-3-3-3-3-3-3-3-3-3-3-3-2-2-2-2-2-2-2-2-1-1-1-1-1-1-1-1---|
G|--3-3-3-3-3-3-3-3-3-3-3-3-3-3-3-3-2-2-2-2-2-2-2-2-1-1-1-1-1-1-1-1---|
C|--3-3-3-3-3-3-3-3-3-3-3-3-3-3-3-3-2-2-2-2-2-2-2-2-1-1-1-1-1-1-1-1---|


[Verse]


D|--------------------------------------|
A|--------------------------------------|
F|------10/9------9/7-----7/5-----5/7---|
C|------x-/x------x/x-----x/x-----x/x---|
G|------8-/7------7/5-----5/3-----3/5---|
C|--0-0------0-0------0-0-----0-0-------| (x3)
    . .      . .      . .     . .


D|--------------------------------------------|
A|--------------------------------------------|
F|------10/9------10/9------10/9------10--9---|
C|------x-/x------x-/x------x-/x------x---x---|
G|------8-/7------8-/7------8-/7------8---7---|
C|--0-0-------0-0------0-0-------0-0----------|
    . .       . .      . .       . .


[Verse 2]


D|--------------------------------------|
A|--------------------------------------|
F|------10/9------9/7-----7/5-----5/7---|
C|------x-/x------x/x-----x/x-----x/x---|
G|------8-/7------7/5-----5/3-----3/5---|
C|--0-0------0-0------0-0-----0-0-------|
    . .      . .      . .     . .

D|---------------------------------------------|
A|---------------------------------------------|
F|---------------------------------------------|
C|--7/8-8-8-8-5-5-5-5/10-10-10-10-10/7-7-7-7---|
G|--7/8-8-8-8-5-5-5-5/10-10-10-10-10/7-7-7-7---|
C|--7/8-8-8-8-5-5-5-5/10-10-10-10-10/7-7-7-7---| (x4)


[Pre-Chorus]


D|-----------------------------------------------------------------------------|
A|---------------------------------------11/10-----11/10-----11/10-----11/10---|
F|-----------------------------------------------------------------------------|
C|--3-3-3-3-3-3-3-3-3-3-3-3-3-5-5-5--------------------------------------------|
G|--3-3-3-3-3-3-3-3-3-3-3-3-3-5-5-5--------------------------------------------|
C|--3-3-3-3-3-3-3-3-3-3-3-3-3-5-5-5--0-0-------0-0-------0-0-------0-0---------|
                                     . .       . .       . .       . .


[Chorus]


D|--------------------------------------------------------------------|
A|--------------------------------------------------------------------|
F|--------------------------------------------------------------------|
C|--3-3-3-3-3-3-3-3-3-3-3-3-3-3-3-3-2-2-2-2-2-2-2-2-1-1-1-1-1-1-1-1---|
G|--3-3-3-3-3-3-3-3-3-3-3-3-3-3-3-3-2-2-2-2-2-2-2-2-1-1-1-1-1-1-1-1---|
C|--3-3-3-3-3-3-3-3-3-3-3-3-3-3-3-3-2-2-2-2-2-2-2-2-1-1-1-1-1-1-1-1---|


[Verse]


D|--------------------------------------|
A|--------------------------------------|
F|------10/9------9/7-----7/5-----5/7---|
C|------x-/x------x/x-----x/x-----x/x---|
G|------8-/7------7/5-----5/3-----3/5---|
C|--0-0------0-0------0-0-----0-0-------| (x3)
    . .      . .      . .     . .


D|--------------------------------------------|
A|--------------------------------------------|
F|------10/9------10/9------10/9------10--9---|
C|------x-/x------x-/x------x-/x------x---x---|
G|------8-/7------8-/7------8-/7------8---7---|
C|--0-0-------0-0------0-0-------0-0----------|
    . .       . .      . .       . .


[Bridge]


D|----------------------------------------------------------------------------|
A|-----------------------------------------------------------11/10------------|
F|-----------------------------------------10/9-----10/9---------------10/9---|
C|--8-8-8-8-8-8-8-8-8-8-8-8-8-8-10-10------x-/x-----x-/x---------------x-/x---|
G|--8-8-8-8-8-8-8-8-8-8-8-8-8-8-10-10------8-/7-----8-/7---------------8-/7---|
C|--8-8-8-8-8-8-8-8-8-8-8-8-8-8-10-10--0-0------0-0------0-0-------0-0--------| (x3)
                                       . .      . .      . .       . .

D|----------------------------------------------------------------------|
A|----------------------------------------------------------------------|
F|----------------------------------------------------------------------|
C|--8-8-8-8-8-8-8-8-8-8-8-8-8-8-10-10-7-7-7-7-7-7-7-7-3-3-3-3-2-2-2-2---|
G|--8-8-8-8-8-8-8-8-8-8-8-8-8-8-10-10-7-7-7-7-7-7-7-7-3-3-3-3-2-2-2-2---|
C|--8-8-8-8-8-8-8-8-8-8-8-8-8-8-10-10-7-7-7-7-7-7-7-7-3-3-3-3-2-2-2-2---|


[Verse]


D|--------------------------------------|
A|--------------------------------------|
F|------10/9------9/7-----7/5-----5/7---|
C|------x-/x------x/x-----x/x-----x/x---|
G|------8-/7------7/5-----5/3-----3/5---|
C|--0-0------0-0------0-0-----0-0-------| (x3)
    . .      . .      . .     . .


D|--------------------------------------------|
A|--------------------------------------------|
F|------10/9------10/9------10/9------10--9---|
C|------x-/x------x-/x------x-/x------x---x---|
G|------8-/7------8-/7------8-/7------8---7---|
C|--0-0-------0-0------0-0-------0-0----------|
    . .       . .      . .       . .


[Verse 2]


D|--------------------------------------|
A|--------------------------------------|
F|------10/9------9/7-----7/5-----5/7---|
C|------x-/x------x/x-----x/x-----x/x---|
G|------8-/7------7/5-----5/3-----3/5---|
C|--0-0------0-0------0-0-----0-0-------|
    . .      . .      . .     . .


D|---------------------------------------------|
A|---------------------------------------------|
F|---------------------------------------------|
C|--7/8-8-8-8-5-5-5-5/10-10-10-10-10/7-7-7-7---|
G|--7/8-8-8-8-5-5-5-5/10-10-10-10-10/7-7-7-7---|
C|--7/8-8-8-8-5-5-5-5/10-10-10-10-10/7-7-7-7---| (x4)


[Pre-Chorus]


D|-----------------------------------------------------------------------------|
A|---------------------------------------11/10-----11/10-----11/10-----11/10---|
F|-----------------------------------------------------------------------------|
C|--3-3-3-3-3-3-3-3-3-3-3-3-3-5-5-5--------------------------------------------|
G|--3-3-3-3-3-3-3-3-3-3-3-3-3-5-5-5--------------------------------------------|
C|--3-3-3-3-3-3-3-3-3-3-3-3-3-5-5-5--0-0-------0-0-------0-0-------0-0---------|
                                     . .       . .       . .       . .

[Chorus]


D|--------------------------------------------------------------------|
A|--------------------------------------------------------------------|
F|--------------------------------------------------------------------|
C|--3-3-3-3-3-3-3-3-3-3-3-3-3-3-3-3-2-2-2-2-2-2-2-2-1-1-1-1-1-1-1-1---|
G|--3-3-3-3-3-3-3-3-3-3-3-3-3-3-3-3-2-2-2-2-2-2-2-2-1-1-1-1-1-1-1-1---|
C|--3-3-3-3-3-3-3-3-3-3-3-3-3-3-3-3-2-2-2-2-2-2-2-2-1-1-1-1-1-1-1-1---|


[Outro]


D|------|
A|------|
F|------|
C|--0---|
G|--0---|
C|--0---|







12. Over Your Dead Body


[Intro]


D|---------------------------------------------------------------------|
A|---------------------------------------------------------------------|
F|-----------------------------------------------------------8-8-7-7---|
C|---0-0--0--0-0--0--0-0--0--0-0--0--0-0--0--0-0--0--0-0--0--8-8-7-7---|
G|---0-0--0--0-0--0--0-0--0--0-0--0--0-0--0--0-0--0--0-0--0--6-6-5-5---|
C|---0-0--0--0-0--0--0-0--0--0-0--0--0-0--0--0-0--0--0-0--0------------|
     . .     .       . .     .       . .     .       . . 

D|---------------------------------------------------------------------|
A|---------------------------------------------------------------------|
F|---------------------------------------------------------------------|
C|---0-0--0--0-0--0--0-0--0--0-0--0--0-0--0--0-0--0--0-0--0--8-8-7-7---|
G|---0-0--0--0-0--0--0-0--0--0-0--0--0-0--0--0-0--0--0-0--0--8-8-7-7---|
C|---0-0--0--0-0--0--0-0--0--0-0--0--0-0--0--0-0--0--0-0--0--8-8-7-7---|
     . .     .       . .     .       . .     .       . . 


[Verse]


D|---------------------------------------------------------------------|
A|---------------------------------------------------------------------|
F|-----------------------------------------------------------8-8-7-7---|
C|---0-0--0--0-0--0--0-0--0--0-0--0--0-0--0--0-0--0--0-0--0--8-8-7-7---|
G|---0-0--0--0-0--0--0-0--0--0-0--0--0-0--0--0-0--0--0-0--0--6-6-5-5---|
C|---0-0--0--0-0--0--0-0--0--0-0--0--0-0--0--0-0--0--0-0--0------------|
     . .     .       . .     .       . .     .       . . 

D|---------------------------------------------------------------------|
A|---------------------------------------------------------------------|
F|---------------------------------------------------------------------|
C|---0-0--0--0-0--0--0-0--0--0-0--0--0-0--0--0-0--0--0-0--0--8-8-7-7---|
G|---0-0--0--0-0--0--0-0--0--0-0--0--0-0--0--0-0--0--0-0--0--8-8-7-7---|
C|---0-0--0--0-0--0--0-0--0--0-0--0--0-0--0--0-0--0--0-0--0--8-8-7-7---| (x2)
     . .     .       . .     .       . .     .       . . 


[Pre-Chorus]


D|-------------------------------------------------------------------------|
A|-------------------------------------------------------------------------|
F|---------------------------------------------------------------8-8-7-7---|
C|---0-0-0-0--0--0-0--0-0-0-0--0--0-0--0-0-0-0--0--0-0--0-0-0-0--8-8-7-7---|
G|---0-0-0-0--0--0-0--0-0-0-0--0--0-0--0-0-0-0--0--0-0--0-0-0-0--6-6-5-5---|
C|---0-0-0-0--0--0-0--0-0-0-0--0--0-0--0-0-0-0--0--0-0--0-0-0-0------------|
     . . . .          . . . .          . . . .          . . . .

D|-------------------------------------------------------------------------|
A|-------------------------------------------------------------------------|
F|-------------------------------------------------------------------------|
C|---0-0-0-0--0--0-0--0-0-0-0--0--0-0--0-0-0-0--0--0-0--0-0-0-0--8-8-7-7---|
G|---0-0-0-0--0--0-0--0-0-0-0--0--0-0--0-0-0-0--0--0-0--0-0-0-0--8-8-7-7---|
C|---0-0-0-0--0--0-0--0-0-0-0--0--0-0--0-0-0-0--0--0-0--0-0-0-0--8-8-7-7---|
     . . . .          . . . .          . . . .          . . . .


[Chorus]


D|-----------------------------------------------------------|
A|-----------------------------------------------------------|
F|--------8-7-------------------------8-7--------------------|
C|---0-0--8-7--0-8-7---1-1-1-1---0-0--8-7--0-8-7---8-8-8-8---|
G|---0-0--6-5--0-8-7---1-1-1-1---0-0--6-5--0-8-7---8-8-8-8---|
C|---0-0-------0-8-7---1-1-1-1---0-0-------0-8-7---8-8-8-8---| (x2)
     . .       .                 . .       .


[Verse]


D|---------------------------------------------------------------------|
A|---------------------------------------------------------------------|
F|-----------------------------------------------------------8-8-7-7---|
C|---0-0--0--0-0--0--0-0--0--0-0--0--0-0--0--0-0--0--0-0--0--8-8-7-7---|
G|---0-0--0--0-0--0--0-0--0--0-0--0--0-0--0--0-0--0--0-0--0--6-6-5-5---|
C|---0-0--0--0-0--0--0-0--0--0-0--0--0-0--0--0-0--0--0-0--0------------|
     . .     .       . .     .       . .     .       . . 

D|---------------------------------------------------------------------|
A|---------------------------------------------------------------------|
F|---------------------------------------------------------------------|
C|---0-0--0--0-0--0--0-0--0--0-0--0--0-0--0--0-0--0--0-0--0--8-8-7-7---|
G|---0-0--0--0-0--0--0-0--0--0-0--0--0-0--0--0-0--0--0-0--0--8-8-7-7---|
C|---0-0--0--0-0--0--0-0--0--0-0--0--0-0--0--0-0--0--0-0--0--8-8-7-7---| (x4)
     . .     .       . .     .       . .     .       . . 


[Pre-Chorus]


D|-------------------------------------------------------------------------|
A|-------------------------------------------------------------------------|
F|---------------------------------------------------------------8-8-7-7---|
C|---0-0-0-0--0--0-0--0-0-0-0--0--0-0--0-0-0-0--0--0-0--0-0-0-0--8-8-7-7---|
G|---0-0-0-0--0--0-0--0-0-0-0--0--0-0--0-0-0-0--0--0-0--0-0-0-0--6-6-5-5---|
C|---0-0-0-0--0--0-0--0-0-0-0--0--0-0--0-0-0-0--0--0-0--0-0-0-0------------|
     . . . .          . . . .          . . . .          . . . .

D|-------------------------------------------------------------------------|
A|-------------------------------------------------------------------------|
F|-------------------------------------------------------------------------|
C|---0-0-0-0--0--0-0--0-0-0-0--0--0-0--0-0-0-0--0--0-0--0-0-0-0--8-8-7-7---|
G|---0-0-0-0--0--0-0--0-0-0-0--0--0-0--0-0-0-0--0--0-0--0-0-0-0--8-8-7-7---|
C|---0-0-0-0--0--0-0--0-0-0-0--0--0-0--0-0-0-0--0--0-0--0-0-0-0--8-8-7-7---|
     . . . .          . . . .          . . . .          . . . .


[Chorus]


D|-----------------------------------------------------------|
A|-----------------------------------------------------------|
F|--------8-7-------------------------8-7--------------------|
C|---0-0--8-7--0-8-7---1-1-1-1---0-0--8-7--0-8-7---8-8-8-8---|
G|---0-0--6-5--0-8-7---1-1-1-1---0-0--6-5--0-8-7---8-8-8-8---|
C|---0-0-------0-8-7---1-1-1-1---0-0-------0-8-7---8-8-8-8---| (x2)
     . .       .                 . .       .


[Verse]


D|---------------------------------------------------------------------|
A|---------------------------------------------------------------------|
F|-----------------------------------------------------------8-8-7-7---|
C|---0-0--0--0-0--0--0-0--0--0-0--0--0-0--0--0-0--0--0-0--0--8-8-7-7---|
G|---0-0--0--0-0--0--0-0--0--0-0--0--0-0--0--0-0--0--0-0--0--6-6-5-5---|
C|---0-0--0--0-0--0--0-0--0--0-0--0--0-0--0--0-0--0--0-0--0------------|
     . .     .       . .     .       . .     .       . . 

D|------------------------------------------------------------|
A|------------------------------------------------------------|
F|------------------------------------------------------------|
C|---0-0--0--0-0--0--0-0--0--0-0--0--0-0--0--0-0--0--0-0--0---|
G|---0-0--0--0-0--0--0-0--0--0-0--0--0-0--0--0-0--0--0-0--0---|
C|---0-0--0--0-0--0--0-0--0--0-0--0--0-0--0--0-0--0--0-0--0---|
     . .     .       . .     .       . .     .       . . 


[Bridge]


D|------------------------------------------------------------------|
A|------------------------------------------------------------------|
F|------------------------------------------------------------------|
C|------------------------------------------------------------------|
G|--------6/5-----------------------------6/5-----------------------|
C|--0-0-0------8/7---1-1-1-3-3-3---0-0-0------8/7--10-10-10-8-8-8---| (x4)
    . . .            . . . . . .   . . .           .  .  .  . . .

D|---------------------------------------------------------------------------------------------|
A|---------------------------------------------------------------------------------------------|
F|---------------------------------------------------------------------------------------------|
C|---------------------------------------------------------------------------------------------|
G|--------6/5-----------------------------------------6/5--------------------------------------|
C|--0-0-0------8/7---1-1-1-1-1-1-3-3-3-3-3-3---0-0-0------8/7--10-10-10-10-10-10-8-8-8-8-8-8---| (x2)
    . . .            . . . . . . . . . . . .   . . .           .  .  .  .  .  .  . . . . . .

[Pre-Chorus]


D|-------------------------------------------------------------------------|
A|-------------------------------------------------------------------------|
F|---------------------------------------------------------------8-8-7-7---|
C|---0-0-0-0--0--0-0--0-0-0-0--0--0-0--0-0-0-0--0--0-0--0-0-0-0--8-8-7-7---|
G|---0-0-0-0--0--0-0--0-0-0-0--0--0-0--0-0-0-0--0--0-0--0-0-0-0--6-6-5-5---|
C|---0-0-0-0--0--0-0--0-0-0-0--0--0-0--0-0-0-0--0--0-0--0-0-0-0------------|
     . . . .          . . . .          . . . .          . . . .

D|-------------------------------------------------------------------------|
A|-------------------------------------------------------------------------|
F|-------------------------------------------------------------------------|
C|---0-0-0-0--0--0-0--0-0-0-0--0--0-0--0-0-0-0--0--0-0--0-0-0-0--8-8-7-7---|
G|---0-0-0-0--0--0-0--0-0-0-0--0--0-0--0-0-0-0--0--0-0--0-0-0-0--8-8-7-7---|
C|---0-0-0-0--0--0-0--0-0-0-0--0--0-0--0-0-0-0--0--0-0--0-0-0-0--8-8-7-7---|
     . . . .          . . . .          . . . .          . . . .


[Chorus]


D|-----------------------------------------------------------|
A|-----------------------------------------------------------|
F|--------8-7-------------------------8-7--------------------|
C|---0-0--8-7--0-8-7---1-1-1-1---0-0--8-7--0-8-7---8-8-8-8---|
G|---0-0--6-5--0-8-7---1-1-1-1---0-0--6-5--0-8-7---8-8-8-8---|
C|---0-0-------0-8-7---1-1-1-1---0-0-------0-8-7---8-8-8-8---| (x4)
     . .       .                 . .       .


[Outro]


D|---------------------------------------------------------------------------------------------|
A|---------------------------------------------------------------------------------------------|
F|---------------------------------------------------------------------------------------------|
C|---------------------------------------------------------------------------------------------|
G|--------6/5-----------------------------------------6/5--------------------------------------|
C|--0-0-0------8/7---1-1-1-1-1-1-3-3-3-3-3-3---0-0-0------8/7--10-10-10-10-10-10-8-8-8-8-8-8---| (x4)
    . . .            . . . . . . . . . . . .   . . .           .  .  .  .  .  .  . . . . . .










13. The Arrival



D|--5b--5---1---------------------------------5b--5---1----------------|
A|----------------5-5----3-----1----------------------------5-5----3---|
F|-------------------------------3-4-5-4-2-1---------------------------|
C|---------------------------------------------------------------------|
G|---------------------------------------------------------------------|
C|---------------------------------------------------------------------| (x4)


D|--5b--5---1---------------------------------5b--5---1-----------------------|
A|----------------5-5----3-----1----------------------------5-5----3------5---|
F|-------------------------------3-4-5-4-2-1----------------------------------|
C|----------------------------------------------------------------------------|
G|----------------------------------------------------------------------------|
C|----------------------------------------------------------------------------|









14. Monsters of the Universe



[Intro]


D|---------------------------------------------------------------------------------|
A|---------------------------------------------------------------------------------|
F|---------------------------------------------------------------------------------|
C|---0-0-0-0--0--0-3-0--0-0-0-0--0--0-5-0--0-0-0-0--0--0-3-0--0-0-0-0--0-0--5--3---|
G|---0-0-0-0--0--0-3-0--0-0-0-0--0--0-5-0--0-0-0-0--0--0-3-0--0-0-0-0--0-0--5--3---|
C|---0-0-0-0--0--0-3-0--0-0-0-0--0--0-5-0--0-0-0-0--0--0-3-0--0-0-0-0--0-0--5--3---| (x2)
     . . . .            . . . .            . . . .            . . . .  . .


D|------------------------------------------------------------------|
A|------------------------------------------------------------------|
F|------------------------------------------------------------------|
C|---2---2---2---5---5---5---5---4---4---4---4---7---7-7-0--5---3---|
G|---2---2---2---5---5---5---5---4---4---4---4---7---7-7-0--5---3---|
C|---2---2---2---5---5---5---5---4---4---4---4---7---7-7-0--5---3---|

D|-----------------------------------------------------------|
A|-----------------------------------------------------------|
F|-----------------------------------------------------------|
C|---2---2---2---5---5---5---5---4---4---4---4--4-0--2-2-2---|
G|---2---2---2---5---5---5---5---4---4---4---4--4-0--2-2-2---|
C|---2---2---2---5---5---5---5---4---4---4---4--4-0--2-2-2---|


[Verse]


D|---------------------------------------------------------------------------------|
A|---------------------------------------------------------------------------------|
F|---------------------------------------------------------------------------------|
C|---0-0-0-0--0--0-3-0--0-0-0-0--0--0-5-0--0-0-0-0--0--0-3-0--0-0-0-0--0-0--5--3---|
G|---0-0-0-0--0--0-3-0--0-0-0-0--0--0-5-0--0-0-0-0--0--0-3-0--0-0-0-0--0-0--5--3---|
C|---0-0-0-0--0--0-3-0--0-0-0-0--0--0-5-0--0-0-0-0--0--0-3-0--0-0-0-0--0-0--5--3---| (x2)
     . . . .            . . . .            . . . .            . . . .  . .


D|------------------------------------------------------------------|
A|------------------------------------------------------------------|
F|------------------------------------------------------------------|
C|---2---2---2---5---5---5---5---4---4---4---4---7---7-7-0--5---3---|
G|---2---2---2---5---5---5---5---4---4---4---4---7---7-7-0--5---3---|
C|---2---2---2---5---5---5---5---4---4---4---4---7---7-7-0--5---3---| (x2)


[Pre-Chorus]


D|-----------------------------------------------------------------------|
A|-----------------------------------------------------------------------|
F|-----------------------------------------------------------------------|
C|--8-7-5-7--7-7-7--7-7-7-7--7-7-7-7--8-7-5-2--2-2-2--2-2-2-2--2-2-2-2---|
G|--8-7-5-7--7-7-7--7-7-7-7--7-7-7-7--8-7-5-2--2-2-2--2-2-2-2--2-2-2-2---|
C|--8-7-5-7--7-7-7--7-7-7-7--7-7-7-7--8-7-5-2--2-2-2--2-2-2-2--2-2-2-2---|


D|----------------------------------------------------------------|
A|----------------------------------------------------------------|
F|----------------------------------------------------------------|
C|--8-7-5-7--7-7-7--7-7-7-7--7-7-7-7--8-7-5-2--2-2-2--2-2-2-2-2---|
G|--8-7-5-7--7-7-7--7-7-7-7--7-7-7-7--8-7-5-2--2-2-2--2-2-2-2-2---|
C|--8-7-5-7--7-7-7--7-7-7-7--7-7-7-7--8-7-5-2--2-2-2--2-2-2-2-2---|


[Chorus]


D|------------------------------------------------------------------|
A|------------------------------------------------------------------|
F|------------------------------------------------------------------|
C|---2---2---2---5---5---5---5---4---4---4---4---7---7-7-0--5---3---|
G|---2---2---2---5---5---5---5---4---4---4---4---7---7-7-0--5---3---|
C|---2---2---2---5---5---5---5---4---4---4---4---7---7-7-0--5---3---| (x3)

D|-----------------------------------------------------------|
A|-----------------------------------------------------------|
F|-----------------------------------------------------------|
C|---2---2---2---5---5---5---5---4---4---4---4--4-0--2-2-2---|
G|---2---2---2---5---5---5---5---4---4---4---4--4-0--2-2-2---|
C|---2---2---2---5---5---5---5---4---4---4---4--4-0--2-2-2---|


[Verse]


D|---------------------------------------------------------------------------------|
A|---------------------------------------------------------------------------------|
F|---------------------------------------------------------------------------------|
C|---0-0-0-0--0--0-3-0--0-0-0-0--0--0-5-0--0-0-0-0--0--0-3-0--0-0-0-0--0-0--5--3---|
G|---0-0-0-0--0--0-3-0--0-0-0-0--0--0-5-0--0-0-0-0--0--0-3-0--0-0-0-0--0-0--5--3---|
C|---0-0-0-0--0--0-3-0--0-0-0-0--0--0-5-0--0-0-0-0--0--0-3-0--0-0-0-0--0-0--5--3---| (x2)
     . . . .            . . . .            . . . .            . . . .  . .


D|------------------------------------------------------------------|
A|------------------------------------------------------------------|
F|------------------------------------------------------------------|
C|---2---2---2---5---5---5---5---4---4---4---4---7---7-7-0--5---3---|
G|---2---2---2---5---5---5---5---4---4---4---4---7---7-7-0--5---3---|
C|---2---2---2---5---5---5---5---4---4---4---4---7---7-7-0--5---3---| (x2)


[Pre-Chorus]


D|-----------------------------------------------------------------------|
A|-----------------------------------------------------------------------|
F|-----------------------------------------------------------------------|
C|--8-7-5-7--7-7-7--7-7-7-7--7-7-7-7--8-7-5-2--2-2-2--2-2-2-2--2-2-2-2---|
G|--8-7-5-7--7-7-7--7-7-7-7--7-7-7-7--8-7-5-2--2-2-2--2-2-2-2--2-2-2-2---|
C|--8-7-5-7--7-7-7--7-7-7-7--7-7-7-7--8-7-5-2--2-2-2--2-2-2-2--2-2-2-2---|


D|----------------------------------------------------------------|
A|----------------------------------------------------------------|
F|----------------------------------------------------------------|
C|--8-7-5-7--7-7-7--7-7-7-7--7-7-7-7--8-7-5-2--2-2-2--2-2-2-2-2---|
G|--8-7-5-7--7-7-7--7-7-7-7--7-7-7-7--8-7-5-2--2-2-2--2-2-2-2-2---|
C|--8-7-5-7--7-7-7--7-7-7-7--7-7-7-7--8-7-5-2--2-2-2--2-2-2-2-2---|


[Chorus]


D|------------------------------------------------------------------|
A|------------------------------------------------------------------|
F|------------------------------------------------------------------|
C|---2---2---2---5---5---5---5---4---4---4---4---7---7-7-0--5---3---|
G|---2---2---2---5---5---5---5---4---4---4---4---7---7-7-0--5---3---|
C|---2---2---2---5---5---5---5---4---4---4---4---7---7-7-0--5---3---| (x3)

D|-----------------------------------------------------------|
A|-----------------------------------------------------------|
F|-----------------------------------------------------------|
C|---2---2---2---5---5---5---5---4---4---4---4--4-0--2-2-2---|
G|---2---2---2---5---5---5---5---4---4---4---4--4-0--2-2-2---|
C|---2---2---2---5---5---5---5---4---4---4---4--4-0--2-2-2---|


[Bridge]


D|---------------------------------------------------------------------|
A|---------------------------------------------------------------------|
F|---------------------------------------------------------------------|
C|---------------------------------------------------------------------|
G|---------------------------------------------------------------------|
C|---5-5-4-4-3-3-3-3-3-3-3-3-3-3-3-3-5-5-7-7-2-2-2-2-2-2-2-2-2-2-2-2---| (x4)


D|---------------------------------------------------------------------------------------------|
A|---------------------------------------------------------------------------------------------|
F|---------------------------------------------------------------------------------------------|
C|-----------3--3-3--3--3-3--3--3-3--3--3-3-------------------2--2-2--2--2-2--2--2-2--2--2-2---|
G|-----------3--3-3--3--3-3--3--3-3--3--3-3-------------------2--2-2--2--2-2--2--2-2--2--2-2---|
C|---5-5-4-4-3--3-3--3--3-3--3--3-3--3--3-3--5-5-5-5-7-7-7-7--2--2-2--2--2-2--2--2-2--2--2-2---|
                . .     . .     . .     . .  . . . . . . . .     . .     . .     . .     . .


D|----------------------------------------------------------------------------------------------------|
A|----------------------------------------------------------------------------------------------------|
F|----------------------------------------------------------------------------------------------------|
C|------------------3--3-3--3--3-3--3--3-3--3--3-3-------------------2--2-2--2--2-2--2--2-2--2--2-2---|
G|------------------3--3-3--3--3-3--3--3-3--3--3-3-------------------2--2-2--2--2-2--2--2-2--2--2-2---|
C|--5-5-5-5-4-4-4-4-3--3-3--3--3-3--3--3-3--3--3-3--5-5-5-5-7-7-7-7--2--2-2--2--2-2--2--2-2--2--2-2---|(x3)
    . . . . . . . .    . .     . .     . .     . .  . . . . . . . .     . .     . .     . .     . .

D|--------------------------------------------------------------------|
A|--------------------------------------------------------------------|
F|--------------------------------------------------------------------|
C|--5-5-4-4-3-3-3-3-3-3-3-3-3-3-3-3-5-5-7-7-2-2-2-2-2-2-2-2-2-2-2-2---|
G|--5-5-4-4-3-3-3-3-3-3-3-3-3-3-3-3-5-5-7-7-2-2-2-2-2-2-2-2-2-2-2-2---|
C|--5-5-4-4-3-3-3-3-3-3-3-3-3-3-3-3-5-5-7-7-2-2-2-2-2-2-2-2-2-2-2-2---|(x9)


[Outro]

D|----------------------------------------------|
A|----------------------------------------------|
F|----------------------------------------------|
C|--5-5-4-4-3-3-3-3-3-3-3-3-3-3-3-3-5-5-7-7-2---|
G|--5-5-4-4-3-3-3-3-3-3-3-3-3-3-3-3-5-5-7-7-2---|
C|--5-5-4-4-3-3-3-3-3-3-3-3-3-3-3-3-5-5-7-7-2---|


************************************

. - Mute
/ - Slide Up
\ - Slide Down
h - Hammer On
~ - Vibrate
b - Bend
x - Dead note

************************************
Suggest correction
Give kudos to tab author, rate the tab!
1 2 3 4 5
comments
print report bad tab
guest
You may want to rate the tab now too:
select rating
Wanna post a correction for this tab? Suggest correction