Oops, an error
Loading. Please wait.

Morgue Than Words Bass Tab

version 1
version 1

Whole song

Interactive

946 views 1 this week
no commentswrite comment
1 2 3 4 5
please rate
add to favorites
launch autoscroll
font size
0
reset
guitar tuner
Autoscroll
slow
fast
+/-
esc
set tempo
stop
Help us to improve Ultimate-Guitar.com Take our survey!
×
Author
Difficulty
the bass plays the emphised note along wit wednesday's guitar i think so ive tabbed it 
tat 4 the verse enjoy

-----------------------|
-----------------------|
-----------------------|
55---55---55---55---55-|

verse

--------------------|
--------------------|
----8-----------3---|
5--------2----------| x 3

chorus
-------------------------------------|
-------------------------------------|
--------88888888--------33333333-----|
55555555--------22222222-------- x 3-|

verse
--------------------|
--------------------|
----8-----------3---|
5--------2----------| x 3

chorus
-------------------------------------|
-------------------------------------|
--------88888888--------33333333-----|
55555555--------22222222-------- x 3-|

solo
-----------------------------------------------|
-----------------------------------------------|
--------88888888--------33333333-------8-----3-|
55555555--------22222222------------5-----2----|

verse
--------------------|
--------------------|
----8-----------3---|
5--------2----------| x 3

chorus
-------------------------------------|
-------------------------------------|
--------88888888--------33333333-----|
55555555--------22222222-------- x 3-|
Suggest correction
Give kudos to tab author, rate the tab!
1 2 3 4 5
comments
print report bad tab
guest
You may want to rate the tab now too:
select rating
Wanna post a correction for this tab? Suggest correction