Oops, an error
Loading. Please wait.

Morgue Than Words Bass Tab

version 2
version 2

Whole song

Interactive

196 views 1 this week
no commentswrite comment
1 2 3 4 5
accurate
x 4
add to favorites
launch autoscroll
font size
0
reset
guitar tuner
Autoscroll
slow
fast
+/-
esc
set tempo
stop
Help us to improve Ultimate-Guitar.com Take our survey!
×
Contributor
Difficulty
Tuning
AnduNeedle 6,417
novice
D G C F A D
-----------------------------------------------------------------------------
                             Morgue Than Words - Wednesday 13
-----------------------------------------------------------------------------
Tabbed by: Andu Needle
E-mail: sulfur_in_my_lungs@yahoo.com

Intro:

F|-------------------------------------|
C|-------------------------------------|
G|-3~--3~--3~--3~----------------------|
D|-------------------------------------|

Verse:

F|-------------------------------------|
C|-------------------------------------|
G|-3~----------------------------------|
D|----3~--5~--1~-----------------------|(x2)

Pre chorus:

F|-------------------------------------|
C|-------------------------------------|
G|-33333333----------------------------|
D|----------33333333-55555555-11111111-|(x2)

Chorus:

F|-------------------------------------|
C|-------------------------------------|
G|-33333333----------------------------|
D|----------33333333-55555555-11111111-|(x2)

The part after the chorus is the same as the intro:

F|-------------------------------------|
C|-------------------------------------|
G|-3~--3~--3~--3~----------------------|
D|-------------------------------------|

The second verse is like the first one!
The second pre chorus is like the first one!
The second chorus is like the first one!

Solo:

F|--------------------------------------|
C|--------------------------------------|
G|-33333333-----------------------------|
D|----------33333333-55555555-11111111--|(x2)

Intro part again:

F|--------------------------------------|
C|--------------------------------------|
G|-3~--3~--3~--3~-----------------------|
D|--------------------------------------|

Verse 3 like the others!
Pre-chorus 3 like the others!
Chorus 3 like the others!

In the last chorus, the second time there are not 8 1s. There are only 5.
comments
print report bad tab
I want to post or [tab]
guest
You may want to rate the tab now too:
select rating
Please do not post tabs as comments. Select "correction" instead!