Oops, an error
Loading. Please wait.

My Demise Bass Tab

version 1
version 1

Whole song

Interactive

76 views 1 this week
no commentswrite comment
1 2 3 4 5
please rate
add to favorites
launch autoscroll
font size
0
reset
guitar tuner
Autoscroll
slow
fast
+/-
esc
set tempo
stop
Help us to improve Ultimate-Guitar.com Take our survey!
×
Author
Difficulty
Tuning
intermediate
D A D G B E
-----------------------------------------------------------------------------
                             My Demise - Wednesday 13
-----------------------------------------------------------------------------
Tabbed by: Andu Needle
E-mail: sulfur_in_my_lungs@yahoo.com

The bass kick in with the chorus!
The song has the same rhythm. It`s the best I can do about it. Good luck figuring out!
And I know that the song may be played in Drop C, but I play it in Drop D and I also 
tabbed it in Drop D as you can see. It`s the same thing!

Chorus:

G|----------------------------------------------------------------|
D|----------------------------------------------------------------|
A|-1-1-11-11-1-11-------------------------------------------------|
D|----------------1-1-11-11-1-11----------------------------------|(x3)

G|----------------------------------------------------------------|
D|----------------------------------------------------------------|
A|---------------1-1-11-11-1-11-----------------------------------|
D|-3-3-33-1-1-11----------------3-3-33-1-1-11-000000000~----------|

Verse:

G|----------------------------------------------------------------|
D|----------------------------------------------------------------|
A|----------------1-1-11-11-1-11----------------------------------|
D|-5-5-55-55-5-55----------------1-1-11-11-1-11-0-0-00-00-0-00----|(x2)

Pre chorus:

G|----------------------------------------------------------------|
D|----------------------------------------------------------------|
A|----------------------------------------------------------------|
D|-1-1-11-11-1-1h3-0-0-00-00-0-00-1-1-11-11-1-1h3-0~--------------|

Chorus 2 is the same as the first one!

Solo:

It`s not a mistake. Yes. There are 2s.

G|-----------------------------------------------------------------|
D|-----------------------------------------------------------------|
A|-2-2-22-22-2-22--------------------------------------------------|
D|----------------2-2-22-22-2-22-----------------------------------|(x2)

G|-----------------------------------------------------------------|
D|-----------------------------------------------------------------|
A|-2-2-22-22-2-22--------------------------------------------------|
D|----------------2-2-22-44-22-00000000~---------------------------|

Before the last chorus is that rough part which goes like this:

G|-----------------------------------------------------------------|
D|-----------------------------------------------------------------|
A|-----------------------------------------------------------------|
D|-00000000--------------------------------------------------------|

Last chorus:

G|-----------------------------------------------------------------|
D|-----------------------------------------------------------------|
A|-1-1-11-11-1-11--------------------------------------------------|
D|----------------1-1-11-11-1-11-----------------------------------|(x3)

G|-----------------------------------------------------------------|
D|-----------------------------------------------------------------|
A|---------------1-1-11-11-1-11------------------------------------|
D|-3-3-33-1-1-11---------------------------------------------------|

And the part with "And the crowd goes wild at my demise":

G|-----------------------------------------------------------------|
D|-----------------------------------------------------------------|
A|-----------------------------------------------------------------|
D|-3-3-33-1-1-11-0-0-00-00-0-00------------------------------------|(x2)

G|-----------------------------------------------------------------|
D|-----------------------------------------------------------------|
A|----------------------------5~-----------------------------------|
D|-3-3-33-1-1-11-00000000(x2)--------------------------------------|

About the last part, I think there are only 15 0s and the 16th is that -5~-. Dunno 
exactly. But anyways, have fun.
Suggest correction
Give kudos to tab author, rate the tab!
1 2 3 4 5
comments
print report bad tab
guest
You may want to rate the tab now too:
select rating
Please do not post tabs as comments. Select "correction" instead!