Oops, an error
Loading. Please wait.

No Rabbit In The Hat tab

version 1
version 1

Whole song

Interactive

1,192 views 1 this week
no commentswrite comment
1 2 3 4 5
2 more votes to show rating
add to favorites
×
Save as Personal and add changes to this tab that will be seen only by you. Learn more ›
×
You can save this tab as Personal to edit and correct it or add notes. All changes will be seen only by you. Learn more »
launch autoscroll
font size
0
reset
how to read this tab
guitar tuner
edit
Autoscroll
slow
fast
+/-
esc
set tempo
stop
#----------------------------------PLEASE NOTE---------------------------------#
#This file is the author's own work and represents their interpretation of the #
#song. You may only use this file for private study, scholarship, or research. #
#------------------------------------------------------------------------------#

NO RABBIT IN THE HAT
As recorded by Wednesday 13
(From the 2008 Album SKELETONS)

Transcribed by unregistered
        

Words and Music by Wednesday 13

Gtr I (C G C F A D) - 'Guitar 1'
Gtr II (C G C F A D) - 'Guitar 2'
Gtr III (C G C F A D) - 'Applause'

    Q=105
 4/4
    Gtr I
  S S S S S S S S S S S S S S E   S S S S S S S S S S S S S S E
|-------------------------------|-------------------------------|
|-------------------------------|-------------------------------|
|-------------------------------|-------------------------------|
|-------------------------------|-------------------------------|
|-------------------------------|-------------------------------|
|-0-6-5-3-0-0---0---0-0-0-0-0---|-0-6-5-3-0-0---0---0-0-0-0-0---|


  S S S S S S S S S S S S S S E   S S S S S S S S H
|-------------------------------|----------------------|
|-------------------------------|----------------------|
|-------------------------------|----------------------|
|-------------------------------|----------------------|
|-------------------------------|----------------------|
|-0-6-5-3-0-0---0---0-0-0-0-0---|-0-6-5-3-0-0-3-0------|


  Gtrs I, II
  S S S S S S S S S S S S S S E   S S S S S S S S S S S S S S E
|-------------------------------|--------------------------------|
|-------------------------------|--------------------------------|
|-------------------------------|--------------------------------|
|-------------------------------|--------------------------------|
|-0-6-5-3-0-0---0---0-0-0-0-0---|-0-6-5-3-0-0---0---0-0-0-0-0----|
|-0-6-5-3-0-0---0---0-0-0-0-0---|-0-6-5-3-0-0---0---0-0-0-0-0----|


  S S S S S S S S S S S S S S E   S S S S S S S S H
|-------------------------------|----------------------|
|-------------------------------|----------------------|
|-------------------------------|----------------------|
|-------------------------------|----------------------|
|-0-6-5-3-0-0---0---0-0-0-0-0---|-0-6-5-3-0-0-3-0------|
|-0-6-5-3-0-0---0---0-0-0-0-0---|-0-6-5-3-0-0-3-0------|


  S S S S S S S S S S S S S S E   S S S S S S S S S S S S S S E
|-------------------------------|--------------------------------|
|-------------------------------|--------------------------------|
|-------------------------------|--------------------------------|
|-------------------------------|--------------------------------|
|-------------------------------|--------------------------------|
|-0-6-5-3-0-0---0---0-0-0-0-0---|-0-6-5-3-0-0---0---0-0-0-0-0----|


  S S S S S S S S S S S S S S E   S S S S S S S S S S S S S S E
|-------------------------------|--------------------------------|
|-------------------------------|--------------------------------|
|-------------------------------|--------------------------------|
|-------------------------------|--------------------------------|
|-------------------------------|--------------------------------|
|-0-6-5-3-0-0---0---0-0-0-0-0---|-0-6-5-3-0-0---0---0-0-0-0-0----|


  S S S S S S S S S S S S S S E   S S S S S S S S S S S S S S E
|-------------------------------|--------------------------------|
|-------------------------------|--------------------------------|
|-------------------------------|--------------------------------|
|-------------------------------|--------------------------------|
|-0-6-5-3-0-0---0---0-0-0-0-0---|-0-6-5-3-0-0---0---0-0-0-0-0----|
|-0-6-5-3-0-0---0---0-0-0-0-0---|-0-6-5-3-0-0---0---0-0-0-0-0----|


  S S S S S S S S S S S S S S E   S S S S S S S S S S S S S S E
|-------------------------------|--------------------------------|
|-------------------------------|--------------------------------|
|-------------------------------|--------------------------------|
|-------------------------------|--------------------------------|
|-0-6-5-3-0-0---0---0-0-0-0-0---|-0-6-5-3-0-0---0---0-0-0-0-0----|
|-0-6-5-3-0-0---0---0-0-0-0-0---|-0-6-5-3-0-0---0---0-0-0-0-0----|


  S S S S S S S S S S S S S S S S
|---------------------------------|
|---------------------------------|
|---------------------------------|
|---------------------------------|
|-3-3-3-3-3-3-3-3-3-3-3-3-3-3-3-3-|
|-3-3-3-3-3-3-3-3-3-3-3-3-3-3-3-3-|
|
| Gtr II
| ~~~~~~~~~~~~~~~~~~~~~~~~~~~~~~~~~
| W
|---------------------------------|
|---------------------------------|
|---------------------------------|
|-3-------------------------------|
|---------------------------------|
|---------------------------------|


  S S S S S S S S S S S S S S S S   H    H
|---------------------------------|-----------|
|---------------------------------|-----------|
|---------------------------------|-----------|
|---------------------------------|-----------|
|-5-5-5-5-5-5-5-5-5-5-5-5-5-5-5-5-|-0----0----|
|-5-5-5-5-5-5-5-5-5-5-5-5-5-5-5-5-|-0----0----|
|
|~~~~~~~~~~~~~~~~~~~~~~~~~~~~~~~~~~~~~~~~~~
| W                                 H    H
|---------------------------------|-----------|
|---------------------------------|-----------|
|---------------------------------|-7----7----|
|-5-------------------------------|-----------|
|---------------------------------|-----------|
|---------------------------------|-----------|


  H    E E E E   S S S S S S S S S S S S S S S S
|--------------|---------------------------------|
|--------------|---------------------------------|
|--------------|---------------------------------|
|--------------|---------------------------------|
|-0----3-0-3-0-|-3-3-3-3-3-3-3-3-3-3-3-3-3-3-3-3-|
|-0----3-0-3-0-|-3-3-3-3-3-3-3-3-3-3-3-3-3-3-3-3-|
|
| ~              ~~~~~~~~~~~~~~~~~~~~~~~~~~~~~~~~~
| H    E E E E   W
|--------------|---------------------------------|
|--------------|---------------------------------|
|-7----7-5-7-5-|---------------------------------|
|--------------|-3-------------------------------|
|--------------|---------------------------------|
|--------------|---------------------------------|


                  PM------------|
  S S S S S S S S S S S S S S S S
|---------------------------------|
|---------------------------------|
|---------------------------------|
|---------------------------------|
|-5-5-5-5-5-5-5-5-5-5-5-5-5-5-5-5-|
|-5-5-5-5-5-5-5-5-----------------|
|
|~~~              PM------------|
| H               S S S S S S S S
|---------------------------------|
|---------------------------------|
|---------------------------------|
|-5-------------------------------|
|---------------------------------|
|-----------------0-0-0-0-0-0-0-0-|


  Gtrs I, II
  S S S S S S S S S S S S S S E   S S S S S S S S S S S S S S E
|-------------------------------|--------------------------------|
|-------------------------------|--------------------------------|
|-------------------------------|--------------------------------|
|-------------------------------|--------------------------------|
|-0-6-5-3-0-0---0---0-0-0-0-0---|-0-6-5-3-0-0---0---0-0-0-0-0----|
|-0-6-5-3-0-0---0---0-0-0-0-0---|-0-6-5-3-0-0---0---0-0-0-0-0----|


  S S S S S S S S S S S S S S E   S S S S S S S S H
|-------------------------------|----------------------|
|-------------------------------|----------------------|
|-------------------------------|----------------------|
|-------------------------------|----------------------|
|-0-6-5-3-0-0---0---0-0-0-0-0---|-0-6-5-3-0-0-3-0------|
|-0-6-5-3-0-0---0---0-0-0-0-0---|-0-6-5-3-0-0-3-0------|


  S S S S S S S S S S S S S S E   S S S S S S S S S S S S S S E
|-------------------------------|--------------------------------|
|-------------------------------|--------------------------------|
|-------------------------------|--------------------------------|
|-------------------------------|--------------------------------|
|-------------------------------|--------------------------------|
|-0-6-5-3-0-0---0---0-0-0-0-0---|-0-6-5-3-0-0---0---0-0-0-0-0----|


  S S S S S S S S S S S S S S E   S S S S S S S S S S S S S S E
|-------------------------------|--------------------------------|
|-------------------------------|--------------------------------|
|-------------------------------|--------------------------------|
|-------------------------------|--------------------------------|
|-------------------------------|--------------------------------|
|-0-6-5-3-0-0---0---0-0-0-0-0---|-0-6-5-3-0-0---0---0-0-0-0-0----|


  S S S S S S S S S S S S S S E   S S S S S S S S S S S S S S E
|-------------------------------|--------------------------------|
|-------------------------------|--------------------------------|
|-------------------------------|--------------------------------|
|-------------------------------|--------------------------------|
|-0-6-5-3-0-0---0---0-0-0-0-0---|-0-6-5-3-0-0---0---0-0-0-0-0----|
|-0-6-5-3-0-0---0---0-0-0-0-0---|-0-6-5-3-0-0---0---0-0-0-0-0----|


  S S S S S S S S S S S S S S E   S S S S S S S S S S S S S S E
|-------------------------------|--------------------------------|
|-------------------------------|--------------------------------|
|-------------------------------|--------------------------------|
|-------------------------------|--------------------------------|
|-0-6-5-3-0-0---0---0-0-0-0-0---|-0-6-5-3-0-0---0---0-0-0-0-0----|
|-0-6-5-3-0-0---0---0-0-0-0-0---|-0-6-5-3-0-0---0---0-0-0-0-0----|


  S S S S S S S S S S S S S S S S
|---------------------------------|
|---------------------------------|
|---------------------------------|
|---------------------------------|
|-3-3-3-3-3-3-3-3-3-3-3-3-3-3-3-3-|
|-3-3-3-3-3-3-3-3-3-3-3-3-3-3-3-3-|
|
| Gtr II
| ~~~~~~~~~~~~~~~~~~~~~~~~~~~~~~~~~
| W
|---------------------------------|
|---------------------------------|
|---------------------------------|
|-3-------------------------------|
|---------------------------------|
|---------------------------------|


  S S S S S S S S S S S S S S S S   H    H
|---------------------------------|-----------|
|---------------------------------|-----------|
|---------------------------------|-----------|
|---------------------------------|-----------|
|-5-5-5-5-5-5-5-5-5-5-5-5-5-5-5-5-|-0----0----|
|-5-5-5-5-5-5-5-5-5-5-5-5-5-5-5-5-|-0----0----|
|
|~~~~~~~~~~~~~~~~~~~~~~~~~~~~~~~~~~~~~~~~~~
| W                                 H    H
|---------------------------------|-----------|
|---------------------------------|-----------|
|---------------------------------|-7----7----|
|-5-------------------------------|-----------|
|---------------------------------|-----------|
|---------------------------------|-----------|


  H    E E E E   S S S S S S S S S S S S S S S S
|--------------|---------------------------------|
|--------------|---------------------------------|
|--------------|---------------------------------|
|--------------|---------------------------------|
|-0----3-0-3-0-|-3-3-3-3-3-3-3-3-3-3-3-3-3-3-3-3-|
|-0----3-0-3-0-|-3-3-3-3-3-3-3-3-3-3-3-3-3-3-3-3-|
|
| ~              ~~~~~~~~~~~~~~~~~~~~~~~~~~~~~~~~~
| H    E E E E   W
|--------------|---------------------------------|
|--------------|---------------------------------|
|-7----7-5-7-5-|---------------------------------|
|--------------|-3-------------------------------|
|--------------|---------------------------------|
|--------------|---------------------------------|


                  PM------------|
  S S S S S S S S S S S S S S S S
|---------------------------------|
|---------------------------------|
|---------------------------------|
|---------------------------------|
|-5-5-5-5-5-5-5-5-5-5-5-5-5-5-5-5-|
|-5-5-5-5-5-5-5-5-----------------|
|
|~~~              PM------------|
| H               S S S S S S S S
|---------------------------------|
|---------------------------------|
|---------------------------------|
|-5-------------------------------|
|---------------------------------|
|-----------------0-0-0-0-0-0-0-0-|


  Gtrs I, II
  S S S S S S S S S S S S S S E   S S S S S S S S S S S S S S E
|-------------------------------|--------------------------------|
|-------------------------------|--------------------------------|
|-------------------------------|--------------------------------|
|-------------------------------|--------------------------------|
|-0-6-5-3-0-0---0---0-0-0-0-0---|-0-6-5-3-0-0---0---0-0-0-0-0----|
|-0-6-5-3-0-0---0---0-0-0-0-0---|-0-6-5-3-0-0---0---0-0-0-0-0----|


  S S S S S S S S S S S S S S E   S S S S S S S S S S S S S S E
|-------------------------------|--------------------------------|
|-------------------------------|--------------------------------|
|-------------------------------|--------------------------------|
|-------------------------------|--------------------------------|
|-0-6-5-3-0-0---0---0-0-0-0-0---|-0-6-5-3-0-0---0---0-0-0-0-0----|
|-0-6-5-3-0-0---0---0-0-0-0-0---|-0-6-5-3-0-0---0---0-0-0-0-0----|


  W          W          W          W
|----------|----------|----------|------|
|----------|----------|----------|------|
|----------|----------|----------|------|
|----------|----------|----------|------|
|-0--------|-3--------|-5--------|-6----|
|-0--------|-3--------|-5--------|-6----|


                                               PM------------|
  W          W          W           H          S S S S S S S S
|----------|----------|----------|------------------------------|
|----------|----------|----------|------------------------------|
|----------|----------|----------|------------------------------|
|----------|----------|----------|------------------------------|
|-0--------|-3--------|-5--------|--6----------5-5-5-5-5-5-5-5--|
|-0--------|-3--------|-5--------|--6---------------------------|
|
| Gtr II
| ~~~~~~~~~~~~~~~~~~~~~~~~                     PM------------|
| W          W          W           E  E  E  E S S S S S S S S
|----------|----------|----------|------------------------------|
|----------|----------|----------|------------------------------|
|-2--------|-5--------|-7--------|-13-13-13-13------------------|
|----------|----------|----------|------------------------------|
|----------|----------|----------|------------------------------|
|----------|----------|----------|-------------0-0-0-0-0-0-0-0--|


  Gtrs I, II
  S S S S S S S S S S S S S S E   S S S S S S S S S S S S S S E
|-------------------------------|--------------------------------|
|-------------------------------|--------------------------------|
|-------------------------------|--------------------------------|
|-------------------------------|--------------------------------|
|-0-6-5-3-0-0---0---0-0-0-0-0---|-0-6-5-3-0-0---0---0-0-0-0-0----|
|-0-6-5-3-0-0---0---0-0-0-0-0---|-0-6-5-3-0-0---0---0-0-0-0-0----|
|
| Gtr III
| E   E   E   E   E   E   E   E   E   E   E   E   E   E   E   E
|-------------------------------|--------------------------------|
|-------------------------------|--------------------------------|
|-------------------------------|--------------------------------|
|-----5-------5-------5-------5-|-----5-------5-------5-------5--|
|-------------------------------|--------------------------------|
|-------------------------------|--------------------------------|


  S S S S S S S S S S S S S S E   S S S S S S S S S S S S S S E
|-------------------------------|--------------------------------|
|-------------------------------|--------------------------------|
|-------------------------------|--------------------------------|
|-------------------------------|--------------------------------|
|-0-6-5-3-0-0---0---0-0-0-0-0---|-0-6-5-3-0-0---0---0-0-0-0-0----|
|-0-6-5-3-0-0---0---0-0-0-0-0---|-0-6-5-3-0-0---0---0-0-0-0-0----|
|
| E   E   E   E   E   E   E   E   E   E   E   E   E   E   E   E
|-------------------------------|--------------------------------|
|-------------------------------|--------------------------------|
|-------------------------------|--------------------------------|
|-----5-------5-------5-------5-|-----5-------5-------5-------5--|
|-------------------------------|--------------------------------|
|-------------------------------|--------------------------------|


  S S S S S S S S S S S S S S S S
|---------------------------------|
|---------------------------------|
|---------------------------------|
|---------------------------------|
|-3-3-3-3-3-3-3-3-3-3-3-3-3-3-3-3-|
|-3-3-3-3-3-3-3-3-3-3-3-3-3-3-3-3-|
|
| Gtr II
| ~~~~~~~~~~~~~~~~~~~~~~~~~~~~~~~~~
| W
|---------------------------------|
|---------------------------------|
|---------------------------------|
|-3-------------------------------|
|---------------------------------|
|---------------------------------|


  S S S S S S S S S S S S S S S S   H    H
|---------------------------------|-----------|
|---------------------------------|-----------|
|---------------------------------|-----------|
|---------------------------------|-----------|
|-5-5-5-5-5-5-5-5-5-5-5-5-5-5-5-5-|-0----0----|
|-5-5-5-5-5-5-5-5-5-5-5-5-5-5-5-5-|-0----0----|
|
|~~~~~~~~~~~~~~~~~~~~~~~~~~~~~~~~~~~~~~~~~~
| W                                 H    H
|---------------------------------|-----------|
|---------------------------------|-----------|
|---------------------------------|-7----7----|
|-5-------------------------------|-----------|
|---------------------------------|-----------|
|---------------------------------|-----------|


  H    E E E E   S S S S S S S S S S S S S S S S
|--------------|---------------------------------|
|--------------|---------------------------------|
|--------------|---------------------------------|
|--------------|---------------------------------|
|-0----3-0-3-0-|-3-3-3-3-3-3-3-3-3-3-3-3-3-3-3-3-|
|-0----3-0-3-0-|-3-3-3-3-3-3-3-3-3-3-3-3-3-3-3-3-|
|
| ~              ~~~~~~~~~~~~~~~~~~~~~~~~~~~~~~~~~
| H    E E E E   W
|--------------|---------------------------------|
|--------------|---------------------------------|
|-7----7-5-7-5-|---------------------------------|
|--------------|-3-------------------------------|
|--------------|---------------------------------|
|--------------|---------------------------------|


                  PM------------|
  S S S S S S S S S S S S S S S S
|---------------------------------|
|---------------------------------|
|---------------------------------|
|---------------------------------|
|-5-5-5-5-5-5-5-5-5-5-5-5-5-5-5-5-|
|-5-5-5-5-5-5-5-5-----------------|
|
|~~~              PM------------|
| H               S S S S S S S S
|---------------------------------|
|---------------------------------|
|---------------------------------|
|-5-------------------------------|
|---------------------------------|
|-----------------0-0-0-0-0-0-0-0-|


  Gtrs I, II
  S S S S S S S S S S S S S S E   S S S S S S S S S S S S S S E
|-------------------------------|--------------------------------|
|-------------------------------|--------------------------------|
|-------------------------------|--------------------------------|
|-------------------------------|--------------------------------|
|-0-6-5-3-0-0---0---0-0-0-0-0---|-0-6-5-3-0-0---0---0-0-0-0-0----|
|-0-6-5-3-0-0---0---0-0-0-0-0---|-0-6-5-3-0-0---0---0-0-0-0-0----|


  S S S S S S S S S S S S S S E   S S S S S S S S S S S S S S E
|-------------------------------|--------------------------------|
|-------------------------------|--------------------------------|
|-------------------------------|--------------------------------|
|-------------------------------|--------------------------------|
|-0-6-5-3-0-0---0---0-0-0-0-0---|-0-6-5-3-0-0---0---0-0-0-0-0----|
|-0-6-5-3-0-0---0---0-0-0-0-0---|-0-6-5-3-0-0---0---0-0-0-0-0----|


  S S S S S S S S S S S S S S E
|-------------------------------|
|-------------------------------|
|-------------------------------|
|-------------------------------|
|-0-6-5-3-0-0---0---0-0-0-0-0---|
|-0-6-5-3-0-0---0---0-0-0-0-0---|


  S S S S S S S S S S S S S S E   S S S S S S S S H
|-------------------------------|----------------------|
|-------------------------------|----------------------|
|-------------------------------|----------------------|
|-------------------------------|----------------------|
|-0-6-5-3-0-0---0---0-0-0-0-0---|-0-6-5-3-0-0-3-0------|
|-0-6-5-3-0-0---0---0-0-0-0-0---|-0-6-5-3-0-0-3-0------|


  S S S S H.        S S S S H.        S S S S H.        S S S S H.
|-----------------|-----------------|-----------------|---------------|
|-----------------|-----------------|-----------------|---------------|
|-----------------|-----------------|-----------------|---------------|
|-----------------|-----------------|-----------------|---------------|
|-0-6-5-3-0-------|-0-6-5-3-0-------|-0-6-5-3-0-------|-0-6-5-3-0-----|
|-0-6-5-3-0-------|-0-6-5-3-0-------|-0-6-5-3-0-------|-0-6-5-3-0-----|


  S  S  S  S H.        S  S  S  S H.
|--------------------|--------------------|
|--------------------|--------------------|
|--------------------|--------------------|
|--------------------|--------------------|
|-0--6--5--3-0-------|-0--6--5--3-0-------|
|-0--6--5--3-0-------|-0--6--5--3-0-------|
|
| Gtr II
| S  S  S  S H.        S  S  S  S H.
|--------------------|--------------------|
|--------------------|--------------------|
|-7-13-12-10-7-------|-7-13-12-10-7-------|
|--------------------|--------------------|
|--------------------|--------------------|
|--------------------|--------------------|


  S  S  S  S H.        S  S  S  S S S  S S H
|--------------------|--------------------------*|
|--------------------|--------------------------*|
|--------------------|--------------------------*|
|--------------------|--------------------------*|
|-0--6--5--3-0-------|-0--6--5--3-0-0--3-0------*|
|-0--6--5--3-0-------|-0--6--5--3-0-0--3-0------*|
|
| S  S  S  S H.        S  S  S  S S S  S S H
|--------------------|--------------------------*|
|--------------------|--------------------------*|
|-7-13-12-10-7-------|-7-13-12-10-7-7-10-7------*|
|--------------------|--------------------------*|
|--------------------|--------------------------*|
|--------------------|--------------------------*|



Duration Legend
---------------
W - whole; H - half; Q - quarter; E - 8th; S - 16th; T - 32nd; X - 64th; a - acciaccatura
+ - note tied to previous; . - note dotted; .. - note double dotted
Uncapitalized letters represent notes that are staccato (1/2 duration)
Irregular groupings are notated above the duration line
Duration letters will always appear directly above the note/fret number it represents the
duration for.  Duration letters with no fret number below them represent rests.  Multi-
bar rests are notated in the form Wxn, where n is the number of bars to rest for.  Low
melody durations appear below the staff

Tablature Legend
----------------
 h   - hammer-on
 p   - pull-off
 b   - bend
 pb  - pre-bend
 r   - bend release (if no number after the r, then release immediately)
 /\  - slide into or out of (from/to "nowhere")
 s   - legato slide
 S   - shift slide
 - natural harmonic
[n]  - artificial harmonic
n(n) - tapped harmonic
 ~   - vibrato
 tr  - trill
 T   - tap
 TP  - trem. picking
 PM  - palm muting
\n/  - tremolo bar dip; n = amount to dip
 \n  - tremolo bar down
 n/  - tremolo bar up
/n\  - tremolo bar inverted dip
 =   - hold bend; also acts as connecting device for hammers/pulls
 <> - volume swell (louder/softer)
 x   - on rhythm slash represents muted slash
 o   - on rhythm slash represents single note slash

Misc Legend
-----------
 |  - bar
||  - double bar
||o - repeat start
o|| - repeat end
*|  - double bar (ending)
 :  - bar (freetime)
 $  - Segno
 &  - Coda
Tempo markers -  = BPM(8/16=s8/s16), where s8 = swing 8ths, s16 = swing 16ths


            
            
Suggest correction
Creating personal tab
Creating personal tab
You can edit any tab online and save it as your Personal.

You can edit, replace or remove any tab part or add personal notes – all changes will be seen only by you.

Personal tabs can be accessed anytime from any device, even offline.
Learn more »
Give kudos to tab author, rate the tab!
1 2 3 4 5
comments
print report bad tab
guest
You may want to rate the tab now too:
select rating
Wanna post a correction for this tab? Suggest correction