Oops, an error
Loading. Please wait.

Not Another Teenage Anthem Bass Tab

925 views 1 this week
no commentswrite comment
1 2 3 4 5
2 more votes to show rating
add to favorites
launch autoscroll
font size
0
reset
guitar tuner
Autoscroll
slow
fast
+/-
esc
set tempo
stop
Help us to improve Ultimate-Guitar.com Take our survey!
×
Author
Difficulty
Tuning
novice
C G C F A D
----------------------------------------------------------------------------
			     Not Another Teenage Anthem - Wednesday 13
----------------------------------------------------------------------------

Tabbed By : Necrotic
e-mail: Joelschwallier@gmail.com

Tuning: Drop C

Intro/Verse
G|------------------------------|
D|------------------------------|
A|------------------------------|
C|2--2-0-4-2--2-22--21-7-7-7-5--|x6

Chorus
G|---------------------------------|
D|---------------------------------|
A|---------------------------------|
C|7-7-7-7-5-5-5-5-2-2-2-2-2-2-2-2--|x3  

G|--------------------------------|
D|--------------------------------|
A|--------------------------------|
C|5-5-5-5-5-5-5-5-7-7-7-7-7-7-7-7-|

Verse
G|------------------------------|
D|------------------------------|
A|------------------------------|
C|2--2-0-4-2--2-22--21-7-7-7-5--|x2

Bridge
G|---------------------|
D|---------------------|
A|---------------------|
C|2-4-5-7-77-5-55-4-44-|x4

Verse
G|------------------------------|
D|------------------------------|
A|------------------------------|
C|2--2-0-4-2--2-22--21-7-7-7-5--|x4

Chorus
G|---------------------------------|
D|---------------------------------|
A|---------------------------------|
C|7-7-7-7-5-5-5-5-2-2-2-2-2-2-2-2--|x3  

G|--------------------------------|
D|--------------------------------|
A|--------------------------------|
C|5-5-5-5-5-5-5-5-7-7-7-7-7-7-7-7-|

Verse
G|------------------------------|
D|------------------------------|
A|------------------------------|
C|2--2-0-4-2--2-22--21-7-7-7-5--|x2

Solo Intro
G|---------|     G|--------------------------------|
D|---------|     D|--------------------------------|
A|---------|     A|--------------------------------|
C|7-5-4-2--|x3   C|5-5-5-5-5-5-5-5-6-6-6-6-6-6-6-6-|

Verse
G|------------------------------|
D|------------------------------|
A|------------------------------|
C|2--2-0-4-2--2-22--21-7-7-7-5--|x2

Chorus
G|---------------------------------|
D|---------------------------------|
A|---------------------------------|
C|7-7-7-7-5-5-5-5-2-2-2-2-2-2-2-2--|x3  

G|--------------------------------|
D|--------------------------------|
A|--------------------------------|
C|5-5-5-5-5-5-5-5-7-7-7-7-7-7-7-7-|

Rest Until 3:11

Verse
G|------------------------------|
D|------------------------------|
A|------------------------------|
C|2--2-0-4-2--2-22--21-7-7-7-5--|x2

Chorus
G|---------------------------------|
D|---------------------------------|
A|---------------------------------|
C|7-7-7-7-5-5-5-5-2-2-2-2-2-2-2-2--|x3  

G|--------------------------------|
D|--------------------------------|
A|--------------------------------|
C|5-5-5-5-5-5-5-5-7-7-7-7-7-7-7-7-|

Outro
G|----------|
D|----------|
A|----------|
C|7-5-4-2--2|



| /  slide up
| \  slide down
| h  hammer-on
| p  pull-off
| ~  vibrato
| +  harmonic
| x  Mute note
=============================================================
Suggest correction
Give kudos to tab author, rate the tab!
1 2 3 4 5
comments
print report bad tab
guest
You may want to rate the tab now too:
select rating
Wanna post a correction for this tab? Suggest correction