Oops, an error
Loading. Please wait.

Ramones Bass Tab

71 views 1 this week
no commentswrite comment
1 2 3 4 5
please rate
add to favorites
launch autoscroll
font size
0
reset
guitar tuner
Autoscroll
slow
fast
+/-
esc
set tempo
stop
Help us to improve Ultimate-Guitar.com Take our survey!
×
Author
Difficulty
novice
----------------------------------------------------------------------
                             R.A.M.O.N.E.S. - Wednesday 13
----------------------------------------------------------------------
Tabbed by: Andu Needle
E-mail: sulfur_in_my_lungs@yahoo.com

Again a simple song, in standard tuning.

Intro:

G|--------------------------------------------------------------|
D|--------------------------------------------------------------|
A|-33333333-----------------------------------------------------|
E|--------------------------------------------------------------|(x4)

Verse:

G|--------------------------------------------------------------|
D|--------------------------------------------------------------|
A|-33333333-----------------------------------------------------|
E|---------3333-1111--------------------------------------------|(x2)

Pre chorus:

G|--------------------------------------------------------------|
D|--------------------------------------------------------------|
A|--------------------------------------------------------------|
E|-11111111-33333333--------------------------------------------|(x2)

Chorus:

G|--------------------------------------------------------------|
D|--------------------------------------------------------------|
A|-33333333-----------------------------------------------------|
E|--------------------------------------------------------------|

Middle Part:

G|--------------------------------------------------------------|
D|--------------------------------------------------------------|
A|-33333333-----------------------------------------------------|
E|--------------------------------------------------------------|(x2)

Verse:

G|--------------------------------------------------------------|
D|--------------------------------------------------------------|
A|-33333333-----------------------------------------------------|
E|---------3333-1111--------------------------------------------|(x2)

Pre chorus:

G|--------------------------------------------------------------|
D|--------------------------------------------------------------|
A|--------------------------------------------------------------|
E|-11111111-33333333--------------------------------------------|(x2)

Chorus:

G|--------------------------------------------------------------|
D|--------------------------------------------------------------|
A|-33333333-----------------------------------------------------|
E|--------------------------------------------------------------|

Middle part again:

G|--------------------------------------------------------------|
D|--------------------------------------------------------------|
A|-33333333-----------------------------------------------------|
E|--------------------------------------------------------------|(x2)

Bridge:

G|--------------------------------------------------------------|
D|--------------------------------------------------------------|
A|-33---55------------------------------------------------------|
E|---33----55---------------------------------------------------|(x3)


G|--------------------------------------------------------------|
D|--------------------------------------------------------------|
A|-33---55------------------------------------------------------|
E|---33----55555555-55555555------------------------------------|

Verse:

G|--------------------------------------------------------------|
D|--------------------------------------------------------------|
A|-33333333-----------------------------------------------------|
E|---------3333-1111--------------------------------------------|(x2)

Pre chorus:

G|--------------------------------------------------------------|
D|--------------------------------------------------------------|
A|--------------------------------------------------------------|
E|-11111111-33333333--------------------------------------------|(x2)

Chorus:

G|--------------------------------------------------------------|
D|--------------------------------------------------------------|
A|-33333333-3~--------------------------------------------------|
E|--------------------------------------------------------------|

It`s a pretty simple song. Though it`s kinda fast, you`ll figure it out. Enjoy!
Suggest correction
Give kudos to tab author, rate the tab!
1 2 3 4 5
comments
print report bad tab
guest
You may want to rate the tab now too:
select rating
Please do not post tabs as comments. Select "correction" instead!