Oops, an error
Loading. Please wait.

Skeletons tab

version 2
version 2

Whole song

Interactive

2,028 views 3 this week
2 commentsread comments
1 2 3 4 5
x 3
add to favorites
×
Save as Personal and add changes to this tab that will be seen only by you. Learn more ›
×
You can save this tab as Personal to edit and correct it or add notes. All changes will be seen only by you. Learn more »
launch autoscroll
font size
0
reset
how to read this tab
guitar tuner
edit
Autoscroll
slow
fast
+/-
esc
set tempo
stop
Author
this tab is not perfect, it is the main riff to the song and the intro, still working on 
solo

Tunning is Drop C CGCFAD


heres the intro played on piano

|----------------------------------|
|----------------------------------|
|-------6-6------------------------|
|---6-6-6-6-8-8-6-5-3--------------|
|---6-6-8-8-8-8-6-5-3--------------|
|---6-6-8-8-8-8-6-5-3--------------|

Main riff
|-----------------------------------------------|
|-----------------------------------------------|
|---------------------8-8-----------------------|
|-3-3-6-5-3-6-6-6-5-3-8-8-6-5-3/8-6-5-3---------|
|-3-3-------6-6-------6-6-----------------------|
|-3-3-------6-6-------6-6-----------------------|


still workin on the rest the main riff is playd throgh most of the song and the chourus
Suggest correction
Creating personal tab
Creating personal tab
You can edit any tab online and save it as your Personal.

You can edit, replace or remove any tab part or add personal notes – all changes will be seen only by you.

Personal tabs can be accessed anytime from any device, even offline.
Learn more »
Give kudos to tab author, rate the tab!
1 2 3 4 5
comments
print report bad tab
2 comments total.
+1 reply
114Punk 10 Apr 21, 2010 12:04 PM

I dont get why the other tab has 5 stars and yours (had) only 1!? I guess this is pretty good and way better than the other one! Just work out the solo and Im fine:)

0 reply
ZombieHead91 10 Aug 18, 2010 12:12 PM

yeah this tab is way better than the other one, plus wednesday 13 plays in drop c and this is in drop c, i recommend playing along with the record to really get the hang off the riff though, other than that, GREAT JOB!

guest
You may want to rate the tab now too:
select rating
Wanna post a correction for this tab? Suggest correction