Oops, an error
Loading. Please wait.

Something Wicked This Way Comes Bass Tab

version 1
version 1

Whole song

Interactive

212 views 1 this week
no commentswrite comment
1 2 3 4 5
excellent!
x 3
add to favorites
launch autoscroll
font size
0
reset
guitar tuner
Tab Pro tools
  • play this tab
  • loop segment
  • change instrument
  • show fretboard
  • metronome
×
Best way to learn
"Something Wicked This Way Comes"
Autoscroll
slow
fast
+/-
esc
set tempo
stop
Contributor
Difficulty
Tuning
novice
D A D G B E
-----------------------------------------------------------------------------
                             Something Wicked This Way Comes - Wednesday 13
-----------------------------------------------------------------------------
Tabbed by: Andu Needle
E-mail: sulfur_in_my_lungs@yahoo.com

Intro:

G|-------------------------------------------------------------|
D|-------------------------------------------------------------|
A|-22----------------------------------------------------------|
D|----44--66--4------------------------------------------------|

G|-------------------------------------------------------------|
D|-------------------------------------------------------------|
A|-22222222(x2)---------------------------------------------2~-|
D|--------------44444444(x2)-66666666(x2)-22222222-44444444----|

Verse:

G|-------------------------------------------------------------|
D|-------------------------------------------------------------|
A|-22-2-22(x2)-------------------------------------------------|
D|-------------44-4-44(x2)-66-6-66(x2)-22-2-22-44-4-44---------|(x2)

Chorus:

G|-------------------------------------------------------------|
D|-------------------------------------------------------------|
A|-22222222(x2)------------------------------------------------|
D|--------------44444444(x2)-66666666(x2)-22222222-44444444----|(x2)

The second time, you play that -2~- at the end.

Verse 2 is the same as the first.
Chorus 2 is the same as the first.

Solo:

G|--------------------------------------------------------------|
D|--------------------------------------------------------------|
A|-22222222(x2)-------------------------------------------------|
D|--------------44444444(x2)-66666666(x2)-22222222-44444444-----|(x2)

The second time, you play that -2~- at the end.

Break down:

G|--------------------------------------------------------------|
D|--------------------------------------------------------------|
A|-22-----------------------------------------------------------|
D|----44--66666666(x2)-22222222-44444444------------------------|

The last chorus is the same as the other. At the end of the second riff you hit that 
-2~- and wait for the ending which is:

G|--------------------------------------------------------------|
D|--------------------------------------------------------------|
A|-2------------------------------------------------------------|
D|--------------------------------------------------------------|
comments
We did not receive enough feedback on this tab! Please rate:
print report bad tab
1 2 3 4 5
I want to post or [tab]
guest
You may want to rate the tab now too:
select rating
Please do not post tabs as comments. Select "correction" instead!