Oops, an error
Loading. Please wait.

Something Wicked This Way Comes tab

version 2
version 2

Whole song

Interactive

928 views 3 this week
no commentswrite comment
1 2 3 4 5
x 3
add to favorites
×
Save as Personal and add changes to this tab that will be seen only by you. Learn more ›
×
You can save this tab as Personal to edit and correct it or add notes. All changes will be seen only by you. Learn more »
launch autoscroll
font size
0
reset
how to read this tab
guitar tuner
edit
Autoscroll
slow
fast
+/-
esc
set tempo
stop
Author
Something Wicked This Way Comes

Drop C

Tabbed by: Lukky Sixx

INTRO

D-------------------------|
A-------------------------|
F-----66666666------------|
C-----66666666------------| 4x
G-----44444444------------|
C-------------------------|
PM------------------------|

Then...

D--------------------------|
A--------------------------|
F-----666666-66-66666------|
C-----666666-66-66666------| 
G-----444444-44-46666------|
C--------------------------|
PM---------|    |----------|

D---------------------------------------------------------|
A---------------------------------------------------------|
F---------------------------------------------------------|
C----666666-66-66666/888888-88-8888888/44444444-66--------| 
G----666666-66-66666/888888-88-8888888/44444444-66--------|
C----666666-66-66666/888888-88-8888888/44444444-66--------|
PM--------|    |----------|   |---------------|

INTRO II.
Rhythm Guitar

D----------------------------------|
A----------------------------------|
F-----666666-----------------------|
C-----666666--66666-88888-444-666--| 2x
G-----444444--66666-88888-444-666--|
C-------------66666-88888-444-666--|

Lead Guitar

D-----------------------------------------|
A-----------------------------------------|
F-----6-6-6-6-6-6-6-6--5-5-5-5-5-5-5-5-5--|
C------6-6-6-6-6-6-6-6--6-6-6-6-6-6-6-6---| 
G-----------------------------------------|
C-----------------------------------------|

D-----------------------------------------|
A-----------------------------------------|
F----3-3-3-3-3-3-3-3---6666666-8888888888-|
C-----4-4-4-4-4-4-4-4---------------------| 
G-----------------------------------------|
C-----------------------------------------|


Only one guitar!!
D-------------------------|
A-------------------------|
F-----66-x-6-x-66/777-----|
C-----66-x-6-x-66/777-----| 4x
G-----44-x-4-x-44/555-----|
C-------------------------|

Then second guitar 

D--------------------------------|
A--------------------------------|
F------------66-x-6-x-66/777-----|
C-131313\----66-x-6-x-66/777-----| 4x
G-131313\----44-x-4-x-44/555-----|
C-131313\------------------------|

VERSE I. 2X

D-----------------------------------------------|
A-----------------------------------------------|
F-----66-x-6-x-66/777---------------------------|
C-----66-x-6-x-66/777--66-x-6-x-66666-x-6-x-666-| 
G-----44-x-4-x-44/555--66-x-6-x-66666-x-6-x-666-|
C----------------------66-x-6-x-66666-x-6-x-666-|

D-------------------------------------------------------------|
A-------------------------------------------------------------|
F-------------------------------------------------------------|
C--88-x-8-x-8888-x-8-x-888-44-x-4-x-4444-66-x-6-x-6666--------| 
G--88-x-8-x-8888-x-8-x-888-44-x-4-x-4444-66-x-6-x-6666--------|
C--88-x-8-x-8888-x-8-x-888-44-x-4-x-4444-66-x-6-x-6666--------|

CHORUS
2x

Rhythm Guitar
D-----------------------------------------|
A-----------------------------------------|
F-----6666666-----------------------------|
C-----6666666-6666666-8888888-44444-66666-| 
G-----4444444-6666666-8888888-44444-66666-|
C-------------6666666-8888888-44444-66666-|

Lead Guitar

D------------------------------------------|
A------------------------------------------|
F--13131313-11111111-10101010--8888--66666-|
C---x-x-x-x--x-x-x-x--x-x-x-x--xxxx--xxxxx-| 
G--11111111--9-9-9-9--8-8-8-8--6666--44444-|
C------------------------------------------|

D-----------------------------------------------------------|
A-----------------------------------------------------------|
F-101010--666-101010-1111--666-1111--131313-1111-1010-8888--|
C--x-x-x--xxx--x-x-x--x-x--xxx--x-x--x-x-x---x-x-x-x--xxxx--| 
G--8-8-8--444--8-8-8--9-9--444--9-9--111111--9-9-8-8--6666--|
C-----------------------------------------------------------|

After second time.
Both Guitars

D------|
A------|
F--6---|
C--6---|
G--4---|
C------|

BREAK
First Guitar

D-------------------------|
A-------------------------|
F-----66-x-6-x-66/777-----|
C-----66-x-6-x-66/777-----| 4x
G-----44-x-4-x-44/555-----|
C-------------------------|

Then second guitar 

D--------------------------------|
A--------------------------------|
F------------66-x-6-x-66/777-----|
C-131313\----66-x-6-x-66/777-----| 4x
G-131313\----44-x-4-x-44/555-----|
C-131313\------------------------|
 
VERSE I. 2X

D-----------------------------------------------|
A-----------------------------------------------|
F-----66-x-6-x-66/777---------------------------|
C-----66-x-6-x-66/777--66-x-6-x-66666-x-6-x-666-| 
G-----44-x-4-x-44/555--66-x-6-x-66666-x-6-x-666-|
C----------------------66-x-6-x-66666-x-6-x-666-|

D-------------------------------------------------------------|
A-------------------------------------------------------------|
F-------------------------------------------------------------|
C--88-x-8-x-8888-x-8-x-888-44-x-4-x-4444-66-x-6-x-6666--------| 
G--88-x-8-x-8888-x-8-x-888-44-x-4-x-4444-66-x-6-x-6666--------|
C--88-x-8-x-8888-x-8-x-888-44-x-4-x-4444-66-x-6-x-6666--------|

CHORUS
2x

Rhythm Guitar
D-----------------------------------------|
A-----------------------------------------|
F-----6666666-----------------------------|
C-----6666666-6666666-8888888-44444-66666-| 
G-----4444444-6666666-8888888-44444-66666-|
C-------------6666666-8888888-44444-66666-|

Lead Guitar 

D------------------------------------------|
A------------------------------------------|
F--13131313-11111111-10101010--8888--66666-|
C---x-x-x-x--x-x-x-x--x-x-x-x--xxxx--xxxxx-| 
G--11111111--9-9-9-9--8-8-8-8--6666--44444-|
C------------------------------------------|

D-----------------------------------------------------------|
A-----------------------------------------------------------|
F-101010--666-101010-1111--666-1111--131313-1111-1010-8888--|
C--x-x-x--xxx--x-x-x--x-x--xxx--x-x--x-x-x---x-x-x-x--xxxx--| 
G--8-8-8--444--8-8-8--9-9--444--9-9--111111--9-9-8-8--6666--|
C-----------------------------------------------------------|

SOLO
Behind solo rhythm guitar play Chorus

D-16b-14-16-1414-13-------------------------------------14-13-16-14-13---------------------------|
A-------------------14~-16b-16~\-----14----1314--14--16----------------16b-1414~---14--14b--14\--|
F----------------------------------13--13------13--13--13------------------------13--13---13-----|
C------------------------------------------------------------------------------------------------| 
G------------------------------------------------------------------------------------------------|
C------------------------------------------------------------------------------------------------|

D-----------------------------------------|
A---2--2--4--4--7--9---9---11--9---9------|
F--/4b-4b-6b-6b-9b-11b-11b-13b-11b-11b\---|
C-----------------------------------------| 
G-----------------------------------------|
C-----------------------------------------|

D----------14--13----------------------------------------------|
A--14--16-----------16b-1414~---14--14b----14--16-14*----------|
F----13--13--13--13----------13--13---1313~--13----------------|
C--------------------------------------------------------------| 
G--------------------------------------------------------------|
C--------------------------------------------------------------|

INTERLUDE
RHYTHM GUITAR

D-------------------------|
A-------------------------|
F-----66666666------------|
C-----66666666------------| 4x
G-----44444444------------|
C-------------------------|
PM------------------------|

Then...

D--------------------------|
A--------------------------|
F-----666666-66-66666------|
C-----666666-66-66666------| 
G-----444444-44-46666------|
C--------------------------|
PM---------|    |----------|

D------------------------------------------------------|
A------------------------------------------------------|
F------------------------------------------------------|
C----666666-66666/888888-88-8888888/44444444-666666----| 
G----666666-66666/888888-88-8888888/44444444-666666----|
C----666666-66666/888888-88-8888888/44444444-666666----|
PM---------------------------------|

Lead Guitar

D-----------------------------------------|
A-----------------------------------------|
F-----6-6-6-6-6-6-6-6--5-5-5-5-5-5-5-5-5--|
C------6-6-6-6-6-6-6-6--6-6-6-6-6-6-6-6---| 
G-----------------------------------------|
C-----------------------------------------|
PM----------------------------------------|

D-----------------------------------------|
A-----------------------------------------|
F----3-3-3-3-3-3-3-3---6666666-8888888888-|
C-----4-4-4-4-4-4-4-4---------------------| 
G-----------------------------------------|
C-----------------------------------------|
PM-------------------|

CHORUS
2x

Rhythm Guitar
D-----------------------------------------|
A-----------------------------------------|
F-----6666666-----------------------------|
C-----6666666-6666666-8888888-44444-66666-| 
G-----4444444-6666666-8888888-44444-66666-|
C-------------6666666-8888888-44444-66666-|

Lead Guitar 

D------------------------------------------|
A------------------------------------------|
F--13131313-11111111-10101010--8888--66666-|
C---x-x-x-x--x-x-x-x--x-x-x-x--xxxx--xxxxx-| 
G--11111111--9-9-9-9--8-8-8-8--6666--44444-|
C------------------------------------------|

D-----------------------------------------------------------|
A-----------------------------------------------------------|
F-101010--666-101010-1111--666-1111--131313-1111-1010-8888--|
C--x-x-x--xxx--x-x-x--x-x--xxx--x-x--x-x-x---x-x-x-x--xxxx--| 
G--8-8-8--444--8-8-8--9-9--444--9-9--111111--9-9-8-8--6666--|
C-----------------------------------------------------------|

OUTRO

Rhytm Guitar
D-------------------------|
A-------------------------|
F-----66-x-6-x-66/777-----|
C-----66-x-6-x-66/777-----| 4x
G-----44-x-4-x-44/555-----|
C-------------------------|

Lead Guitar

D-----------------------|
A-----------------------|
F-----6-6-6-6-6-6-6-6---|
C------6-6-6-6-6-6-6-6--| 
G-----------------------|
C-----------------------|


After fourth time

D-----|
A-----|
F--6--|
C--6--|
G--4--|
C-----|


************************************

| /   slide up
| \   slide down
| ~   vibrato
| *   harmonic
| x   Dead note
| PM  Palm Mute

************************************

            
            
Suggest correction
Creating personal tab
Creating personal tab
You can edit any tab online and save it as your Personal.

You can edit, replace or remove any tab part or add personal notes – all changes will be seen only by you.

Personal tabs can be accessed anytime from any device, even offline.
Learn more »
Give kudos to tab author, rate the tab!
1 2 3 4 5
comments
print report bad tab
guest
You may want to rate the tab now too:
select rating
Wanna post a correction for this tab? Suggest correction