Oops, an error
Loading. Please wait.

The Dixie Dead Bass Tab

version 1
version 1

Album

Whole song

389 views 1 this week
no commentswrite comment
1 2 3 4 5
excellent!
x 4
add to favorites
launch autoscroll
font size
0
reset
guitar tuner
Tab Pro tools
  • play this tab
  • loop segment
  • change instrument
  • show fretboard
  • metronome
×
Best way to learn
"The Dixie Dead"
Autoscroll
slow
fast
+/-
esc
set tempo
stop
Contributor
Difficulty
Tuning
intermediate
C G C F A D
-----------------------------------------------------------------------------
                             The Dixie Dead - Wednesday 13
-----------------------------------------------------------------------------
Tabbed by: Andu Needle
E-mail: sulfur_in_my_lungs@yahoo.com

1. Death Arise (Intro)

F|-----------------------|
C|-----------------------|
G|-----------------------|
C|-4~--2~--0~--2~--4~----|

2. Blood Sucker

Intro:

F|----------------------------------------------------------------------|
C|----------------------------------------------------------------------|
G|----------------------------------------------------------------------|
C|-53-00-53-0-00000--53-00-53-0-00000--53-00-53-0-0030-6666666-5555555--|(x3)

Verse:

F|----------------------------------------------------------------------|
C|----------------------------------------------------------------------|
G|---------------65---------------65------------------------------------|
C|-0000000000000----0000000000000----000000000030-6666666-555555--------|(x2)

Pre chorus:

F|----------------------------------------------------------------------|
C|----------------------------------------------------------------------|
G|----------------------------------------------------------------------|
C|-3333333333333-55-0000000000000000------------------------------------|

F|----------------------------------------------------------------------|
C|----------------------------------------------------------------------|
G|----------------------------------------------------------------------|
C|-3333333333333-55-2222222-1111111-------------------------------------|

Chorus:

F|----------------------------------------------------------------------|
C|----------------------------------------------------------------------|
G|----------------------------------------------------------------------|
C|-53-00-53-0-00000--53-00-53-0-00000--53-00-53-0-0030-6666666-5555555--|(x2)

Main riff:

F|----------------------------------------------------------------------|
C|----------------------------------------------------------------------|
G|----------------------------------------------------------------------|
C|-53-00-53-0-00000--53-00-53-0-00000--53-00-53-0-0030-6666666-5555555--|

Verse 2 is like the first one!
Pre chorus 2 is like the first one!
Chorus 2 is like the first one, but this time it goes twice!

Bridge:

F|----------------------------------------------------------------------|
C|----------------------------------------------------------------------|
G|----------------------------------------------------------------------|
C|-5535--5530--5535--7777777777777777-----------------------------------|

Solo:

F|----------------------------------------------------------------------|
C|----------------------------------------------------------------------|
G|----------------------------------------------------------------------|
C|-53-00-53-0-00000--53-00-53-0-00000--53-00-53-0-0030-6666666-5555555--|(x2)

After solo you go straight into the chorus!
After the last chorus is the main riff again!

I don't know if I tabbed it right, but I'm sure that the notes are good.

3. Get Your Grave On

Verse:

The bass comes in straight into the verse.

F|-------------------------------------------------------------------|
C|-------------------------------------------------------------------|
G|--------------------------------8-10-8-----------------------------|
C|-0000(x6)(x2)-3333(x6)-0000(x6)------------------------------------|

There, that (x6)(x2) means that you play those 4 0s 6 times, and the whole riff you play it twice.

F|-------------------------------------------------------------------|
C|-------------------------------------------------------------------|
G|-------------------------------------------------------------------|
C|-xx0-xx0-xx0-xx0(x4)--xx3-xx3-xx3-xx3--xx0-xx0-xx0-xx0-------------|

Chorus:

F|-------------------------------------------------------------------|
C|-------------------------------------------------------------------|
G|-------------------------------------------------------------------|
C|-000000000(x2)-33333333(x2)-77777777-6666-3333-00000000(x2)-7-7----|(x2)

Verse 2 is the same.
Chorus 2 is the same.

Bridge:

F|-------------------------------------------------------------------|
C|-------------------------------------------------------------------|
G|-------------------------------------------------------------------|
C|-xx-xx-0(x4)-xx-xx-3(x4)-xx-xx-0-xx-xx-0-xx-xx-7-7-----------------|(x2)

Last chorus is the same as the others!

In the ending, there is no bass.

4. Curse The Living

Intro:

F|----------------------------------------------------------------|
C|----------------------------------------------------------------|
G|----------------------------------------------------------------|
C|-00--00--00--00--00~--00~--00~--00000000000---------------------|

F|----------------------------------------------------------------|
C|----------------------------------------------------------------|
G|----5/6-3/4-5----5/6-3/4-8----5/6-3/4-5----5/6------------------|
C|-00-----------00-----------00-----------00-----3h4-3h4----------|

F|----------------------------------------------------------------|
C|----------------------------------------------------------------|
G|----5/6-3/4-5----5/6-3/4-8----5/6-3/4-5----5/6------------------|
C|-00-----------00-----------00-----------00-----3h4-3h4-3h4-3h4--|

Verse:

F|----------------------------------------------------------------|
C|----------------------------------------------------------------|
G|-----------5\------------------------5\-------------------------|
C|-0-0000-00----0-0000-00-5\-0-0000-00----00-5\-00-567------------|(x2)

Main riff again:

F|----------------------------------------------------------------|
C|----------------------------------------------------------------|
G|----5/6-3/4-5----5/6-3/4-8----5/6-3/4-5----5/6------------------|
C|-00-----------00-----------00-----------00-----3h4-3h4----------|

F|----------------------------------------------------------------|
C|----------------------------------------------------------------|
G|----5/6-3/4-5----5/6-3/4-8----5/6-3/4-5----5/6------------------|
C|-00-----------00-----------00-----------00-----3h4-3h4-3h4-3h4--|

Verse 2 is the same as the first one!

Chorus:

F|----------------------------------------------------------------|
C|----------------------------------------------------------------|
G|----5/6-3/4-5----5/6-3/4-8----5/6-3/4-5----5/6------------------|
C|-00-----------00-----------00-----------00-----3h4-3h4----------|

F|----------------------------------------------------------------|
C|----------------------------------------------------------------|
G|----5/6-3/4-5----5/6-3/4-8----5/6-3/4-5----5/6------------------|
C|-00-----------00-----------00-----------00-----3h4-3h4-3h4-3h4--|

Break:

F|----------------------------------------------------------------|
C|----------------------------------------------------------------|
G|----------------------------------------------------------------|
C|-00--00--00--00--00~--00~--00~--00000000000---------------------|

F|----------------------------------------------------------------|
C|----------------------------------------------------------------|
G|----5/6-3/4-5----5/6-3/4-8----5/6-3/4-5----5/6------------------|
C|-00-----------00-----------00-----------00-----3h4-3h4----------|

F|----------------------------------------------------------------|
C|----------------------------------------------------------------|
G|----5/6-3/4-5----5/6-3/4-8----5/6-3/4-5----5/6------------------|
C|-00-----------00-----------00-----------00-----3h4-3h4-3h4-3h4--|

Verse 3 is the same as the others!
Chorus 2 is like the first one!

Break again:

F|----------------------------------------------------------------|
C|----------------------------------------------------------------|
G|----------------------------------------------------------------|
C|-00--00--00--00--00~--00~--00~--000000-0000---------------------|

Bridge and solo:

I'm not sure about the rhythm here. The notes are right!

F|----------------------------------------------------------------|
C|----------------------------------------------------------------|
G|----------------------------------------------------------------|
C|-66666666666666666666-00000-000-00000-000-----------------------|(x3)

Break again!
Main riff again!

Chorus 3 is like the others!
The outro is the main riff!

5. Too Fast For Blood

Intro:

F|-----------------------------------------------|
C|-----------------------------------------------|
G|-55-------55-------55--------------------------|
C|----00000----00000----00000-00331--------------|(x2)

Verse:

F|-----------------------------------------------|
C|-----------------------------------------------|
G|-55-------55-------55--------------------------|
C|----00000----00000----00000-00331--------------|(x2)

Pre chorus:

F|-----------------------------------------------|
C|-----------------------------------------------|
G|-55-------55-------55--------------------------|
C|----00000----00000----00000-00331--------------|

F|-----------------------------------------------|
C|-----------------------------------------------|
G|-55-------55-------55--------------------------|
C|----00000----00000----00000-33333--------------|

Chorus:

F|-----------------------------------------------|
C|-----------------------------------------------|
G|-55-------55-------55--------------------------|
C|----00000----00000----00000-00331--------------|(x3)

F|-----------------------------------------------|
C|-----------------------------------------------|
G|-55-------55-------55--------------------------|
C|----00000----00000----00000-33333--------------|

Main riff:

F|-----------------------------------------------|
C|-----------------------------------------------|
G|-55-------55-------55--------------------------|
C|----00000----00000----00000-00331--------------|(x2)

Verse 2 is the same as the first one!
Pre chorus 2 is the same as the first one!
Chorus 2 is the same as the first one!

Bridge and solo:

F|-----------------------------------------------|
C|-----------------------------------------------|
G|-----------------------------------------------|
C|-6-53530-0000000-------------------------------|

F|-----------------------------------------------|
C|-----------------------------------------------|
G|-----------------------------------------------|
C|-6-53530-6666666-------------------------------|

During the bridge and the solo you play this parts for 4 times. But the 4th time it goes like this:

F|-----------------------------------------------|
C|-----------------------------------------------|
G|-----------------------------------------------|
C|-6-53530-0000000-------------------------------|

F|-----------------------------------------------|
C|-----------------------------------------------|
G|-----------------------------------------------|
C|-6-53530-33333---------------------------------|

Chorus again!
Bridge part again!

6. Hail Ming

Intro 1:

F|----------------------------------------------------|
C|----------------------------------------------------|
G|----------------------------------------------------|
C|-33333333-3333--------------------------------------|(x16)

Intro 2:

F|----------------------------------------------------|
C|----------------------------------------------------|
G|----------------------------------------------------|
C|-4-333-333-333-333-333-333-333----------------------|

F|----------------------------------------------------|
C|----------------------------------------------------|
G|----------------------------------------------------|
C|-4-333-333-333-333-000-000-000----------------------|

You play this parts twice.

Verse:

F|----------------------------------------------------|
C|----------------------------------------------------|
G|----------------------------------------------------|
C|-4-333-333-333-333-333-333-333----------------------|

F|----------------------------------------------------|
C|----------------------------------------------------|
G|----------------------------------------------------|
C|-4-333-333-333-333-000-000-000----------------------|

You play this parts for 4 times.

Pre chorus part:

F|----------------------------------------------------|
C|----------------------------------------------------|
G|----------------------------------------------------|
C|-33333333-3333--------------------------------------|(x2)

Chorus:

F|----------------------------------------------------|
C|----------------------------------------------------|
G|----------------------------------------------------|
C|-4-333-333-333-333-333-333-333----------------------|

F|----------------------------------------------------|
C|----------------------------------------------------|
G|----------------------------------------------------|
C|-4-333-333-333-333-000-000-000----------------------|

You play this parts twice.

Verse 2 is the same as the first one.
Pre chorus 2 is the same as the first one.
Chorus 2 is the same as the first one.

Bridge:

F|----------------------------------------------------|
C|----------------------------------------------------|
G|----------------------------------------------------|
C|-000-000-4-3~---------------------------------------|(x4)

Solo:

F|----------------------------------------------------|
C|----------------------------------------------------|
G|----------------------------------------------------|
C|-4-333-333-333-333-333-333-333----------------------|

F|----------------------------------------------------|
C|----------------------------------------------------|
G|----------------------------------------------------|
C|-4-333-333-333-333-000-000-000----------------------|

You play this parts for 4 time.

Chorus again.
After the last chorus is the bridge part again.

The rhythm is very tricky.

8. The Dixie Dead

Basically, this song has only one big riff. After those 2 measures you go straight into those 0s.

F|------------------------------------------------|
C|------------------------------------------------|
G|------------------------------------------------|
C|-22222222-54542-22222222-54542------------------|

F|------------------------------------------------|
C|------------------------------------------------|
G|------------------------------------------------|
C|-00000000(x2)-22222222-54542-22222222-54542-----|

9. Ghost Stories

I don't know if I'm right but I guess this song has only one riff made up of 3 notes. I 
mean, I don't hear any variations or any other riffs. I don't know if my ear worked 
properly. I hope it's good.

F|-----------------------------------------|
C|-----------------------------------------|
G|-----------------------------------------|
C|-44444444-77777777-00000000-00000000-----|

You play this riff all the song.

10. Fuck You (In Memory Of...)

Intro:

F|----------------------------------9/12-7~---------------------------|
C|--------------------------------------------------------------------|
G|-5~-------5~-55--5~-------------------------------------------------|
C|----7~-5~-----------7~-55-44-2-0~-----------------------------------|

Not sure about that slide.

Verse:

F|--------------------------------------------------------------------|
C|--------------------------------------------------------------------|
G|-5-555-------------5-555-5-555-------------5-555--------------------|
C|-------7-777-5-555-------------7-777-5-555--------------------------|

After this, you go straight into:

F|--------------------------------------------------------------------|
C|--------------------------------------------------------------------|
G|-55555555-------------------55555555--------------------------------|
C|----------77777777-55555555-----------------------------------------|

F|--------------------------------------------------------------------|
C|--------------------------------------------------------------------|
G|-55555555-----------------------------------------------------------|
C|----------77777777-55-44-2-0~---------------------------------------|

Chorus:

F|--------------------------------------------------------------------|
C|--------------------------------------------------------------------|
G|-5555-55-----------------5555-55-5555-55-----------------5555-55----|
C|---------7777-77-5555-55-----------------7777-77-5555-55------------|

F|--------------------------------------------------------------------|
C|--------------------------------------------------------------------|
G|-5555-55-----------------5555-55-5555-55----------------------------|
C|---------7777-77-5555-55-----------------7777-77-55-44-2-0~---------|

Main riff:

F|------------------------------------------------------------9/12-7~-|
C|--------------------------------------------------------------------|
G|-5555-55-----------------5555-55-5555-55----------------------------|
C|---------7777-77-5555-55-----------------7777-77-55-44-2-0~---------|

Verse 2 as the first one.
Chorus 2 as the first one.

Bridge:

F|--------------------------------------------------------------------|
C|--------------------------------------------------------------------|
G|-2202-2202-0-------------2202-2202-0--------------------------------|
C|-------------5~-55555555-------------55555555(x2)-------------------|

Solo:

F|--------------------------------------------------------------------|
C|--------------------------------------------------------------------|
G|-55555555--------------------55555555-------------------------------|
C|----------77777777-55555555-----------------------------------------|(x4)

F|--------------------------------------------------------------------|
C|--------------------------------------------------------------------|
G|-5~-------5~--------------------------------------------------------|
C|----7~-5~-----------------------------------------------------------|

F|--------------------------------------------------------------------|
C|--------------------------------------------------------------------|
G|-5~-------------55555555--------------------------------------------|
C|----7~-55555555-----------------------------------------------------|

The last chorus is the same as the others. Play it twice.

I hope it`s right. If it`s not, I`m sorry.

11. Carol Anne...They're Here

Intro:

F|----------------------------------------------------------------------|
C|----------------------------------------------------------------------|
G|----------------------------------------------------------------------|
C|-77-777(x8)-----------------------------------------------------------|

After this part, you go straight into the verse:

Verse:

F|----------------------------------------------------------------------|
C|----------------------------------------------------------------------|
G|--------------------------------55-555-555-55544-77-777-77------------|
C|-777-777-77766-44-444-444-44422---------------------------------------|

F|----------------------------------------------------------------------|
C|----------------------------------------------------------------------|
G|-----------------------------------55-555-555-55544-77-777-77---------|
C|-77-777-777-77766-44-444-444-44422------------------------------------|

Chorus:

F|----------------------------------------------------------------------|
C|----------------------------------------------------------------------|
G|----------------------------------------------------------------------|
C|-7-77-77-776-4-44-44-446-7-77-77-776-4-44-44-442----------------------|


F|----------------------------------------------------------------------|
C|----------------------------------------------------------------------|
G|-5-55-55-554-7-77-77-77-----------------------------------------------|
C|----------------------------------------------------------------------|

Post chorus:

F|----------------------------------------------------------------------|
C|----------------------------------------------------------------------|
G|----------------------------------------------------------------------|
C|-7-777-4-444-7-774-77747----------------------------------------------|

Verse 2 is the same as the first one, except that part which is more like an intro.
Chorus 2 is the same as the first one.
Post chorus 2 is the same as the intro.

Solo:

F|----------------------------------------------------------------------|
C|----------------------------------------------------------------------|
G|-----------------------------------55-555-555-55544-77-777-77777777---|
C|-77-777-777-77766-44-444-444-44422------------------------------------|(x2)

The last chorus is the same as the others.
The last post chorus is the same as the others.

And the outro goes like this:

F|----------------------------------------------------------------------|
C|----------------------------------------------------------------------|
G|----------------------------------------------------------------------|
C|-77-777-777-777-777---------------------------------------------------|

You play those "-777-" til fade out.

12. Hands Of The Ripper

Basically, the song has only one big riff, except the bridge and the ending. This 
riff goes like this:

F|-----------------------------------------|
C|-----------------------------------------|
G|-----------------------------------------|
C|-020-555-2222-0222(x3)-002-555-7752------|

Bridge:

F|-----------------------------------------|
C|-----------------------------------------|
G|-----------------------------------------|
C|-2~--2~--22222222(x2)--------------------|

Ending:

*In the last part of the chorus you go like this:

F|------------------------------------------|
C|------------------------------------------|
G|------------------------------------------|
C|-020-555-2222-0222(x3)-002-555-7752-2-2-2-|

After that last 2 you play just the D note until the song ends! 

This is the whole album. Except Coming Attractions and Death Arise (overture). Enjoy. 
comments
print report bad tab
I want to post or [tab]
guest
You may want to rate the tab now too:
select rating
Please do not post tabs as comments. Select "correction" instead!