Oops, an error
Loading. Please wait.

Transylvania 90210 Bass Tab

version 2
version 2

Whole song

Interactive

187 views 1 this week
no commentswrite comment
1 2 3 4 5
please rate
add to favorites
launch autoscroll
font size
0
reset
guitar tuner
Tab Pro tools
  • play this tab
  • loop segment
  • change instrument
  • show fretboard
  • metronome
Autoscroll
slow
fast
+/-
esc
set tempo
stop
Contributor
#----------------------------------PLEASE NOTE---------------------------------#
#This file is the author's own work and represents their interpretation of the #
#song. You may only use this file for private study, scholarship, or research. #
#------------------------------------------------------------------------------#

TRANSYLVANIA 90210 (Bassline)
As recorded by Wednesday 13
(From the 2005 Album TRANSYLVANIA 90210: SONGS OF DEATH, DYING, AND THE DEAD)

Transcribed by Woutjinho
	

Words and Music by Wednesday 13

Gtr I (E A D G) - 'Bass'

 Intro
  Q=130
 4/4
  Gtr I
  Q.   H    +E    +W            Q.   H    +E    +W
|---------------|------------|----------------|--------|
|---------------|------------|----------------|--------|
|-7----5----(5)-|-(5)--------|-/7----5----(5)-|-(5)----|
|---------------|------------|----------------|--------|


   Q.   H    +E    +W            Q.   H    +E    +W
|----------------|------------|----------------|--------|
|----------------|------------|----------------|--------|
|-/7----2----(2)-|-(2)--------|-/7----5----(5)-|-(5)----|
|----------------|------------|----------------|--------|


 Verse
   Q.   H    +E    +W            Q.   H    +E    +W
|----------------|------------|----------------|--------|
|----------------|------------|----------------|--------|
|-/7----5----(5)-|-(5)--------|-/7----5----(5)-|-(5)----|
|----------------|------------|----------------|--------|


   Q.   H    +E    +W            Q.   H    +E    +W
|----------------|------------|----------------|--------|
|----------------|------------|----------------|--------|
|-/7----2----(2)-|-(2)--------|-/7----5----(5)-|-(5)----|
|----------------|------------|----------------|--------|


  $
   Q.   H    +E    +W            Q.   H    +E    +W
|----------------|------------|----------------|--------|
|----------------|------------|----------------|--------|
|-/7----5----(5)-|-(5)--------|-/7----5----(5)-|-(5)----|
|----------------|------------|----------------|--------|


   Q.   H    +E    +W            Q.   H    +E    +W
|----------------|------------|----------------|--------|
|----------------|------------|----------------|--------|
|-/7----2----(2)-|-(2)--------|-/7----5----(5)-|-(5)----|
|----------------|------------|----------------|--------|


   Chorus
     W          +W           W          +W      3x
||------------|------------|----------|---------||
||o-----------|------------|----------|--------o||
||o-/7--------|-(7)--------|-5--------|-(5)----o||
||------------|------------|----------|---------||


                       To Coda
                       To Coda
                               2/4    4/4
   W           H    +E   Q.     H      +W
|-----------|-----------------|------|--------|
|-----------|-----------------|------|--------|
|-/7--------|-/8----(8)-10----|-5----|-(5)----|
|-----------|-----------------|------|--------|


                               Verse
   Q.   H    +E    +W            Q.   H    +E
|----------------|------------|----------------|
|----------------|------------|----------------|
|-/7----5----(5)-|-(5)--------|-/7----5----(5)-|
|----------------|------------|----------------|


                                D.S.
  +W            Q.   H    +E    +W
|------------|----------------|---------|
|------------|----------------|---------|
|-(5)--------|-/7----5----(5)-|-(5)-----|
|------------|----------------|---------|


 Interlude
  &
 2/4    4/4
  H      +W            Q.   H    +E    +W
|------|------------|----------------|--------|
|------|------------|----------------|--------|
|-5----|-(5)--------|-/7----5----(5)-|-(5)----|
|------|------------|----------------|--------|


   Q.   H    +E    +W            Q.   H    +E    +W
|----------------|------------|----------------|--------|
|----------------|------------|----------------|--------|
|-/7----5----(5)-|-(5)--------|-/7----5----(5)-|-(5)----|
|----------------|------------|----------------|--------|


                                                             2/4
   Q.   H    +E    +W            Q.   H    +E    +W           +H
|----------------|------------|----------------|------------|--------|
|----------------|------------|----------------|------------|--------|
|-/7----2----(2)-|-(2)--------|-/7----5----(5)-|-(5)--------|-(5)----|
|----------------|------------|----------------|------------|--------|


   Chorus
   4/4
     W          +W           W          +W      3x
||------------|------------|----------|---------||
||o-----------|------------|----------|--------o||
||o-/7--------|-(7)--------|-5--------|-(5)----o||
||------------|------------|----------|---------||


   W           H    +E   Q.
|-----------|-----------------|
|-----------|-----------------|
|-/7--------|-/8----(8)-10----|
|-----------|-----------------|


 Outro
 2/4    4/4
  H      +W            Q.   H    +E    +W
|------|------------|----------------|--------|
|------|------------|----------------|--------|
|-5----|-(5)--------|-/7----5----(5)-|-(5)----|
|------|------------|----------------|--------|


     Q.   H    +E    +W            Q.   H    +E    +W      3x
||-----------------|------------|----------------|---------||
||o----------------|------------|----------------|--------o||
||o-/7----5----(5)-|-(5)--------|-/7----5----(5)-|-(5)----o||
||-----------------|------------|----------------|---------||


  +W           +W           +W           +W
|------------|------------|------------|--------*|
|------------|------------|------------|--------*|
|-(5)--------|-(5)--------|-(5)--------|-(5)----*|
|------------|------------|------------|--------*|



Duration Legend
---------------
W - whole; H - half; Q - quarter; E - 8th; S - 16th; T - 32nd; X - 64th; a - acciaccatura
+ - note tied to previous; . - note dotted; .. - note double dotted
Uncapitalized letters represent notes that are staccato (1/2 duration)
Irregular groupings are notated above the duration line
Duration letters will always appear directly above the note/fret number it represents the
duration for.  Duration letters with no fret number below them represent rests.  Multi-
bar rests are notated in the form Wxn, where n is the number of bars to rest for.  Low
melody durations appear below the staff

Tablature Legend
----------------
 h   - hammer-on
 p   - pull-off
 b   - bend
 pb  - pre-bend
 r   - bend release (if no number after the r, then release immediately)
 /\  - slide into or out of (from/to "nowhere")
 s   - legato slide
 S   - shift slide
 - natural harmonic
[n]  - artificial harmonic
n(n) - tapped harmonic
 ~   - vibrato
 tr  - trill
 T   - tap
 TP  - trem. picking
 PM  - palm muting
\n/  - tremolo bar dip; n = amount to dip
 \n  - tremolo bar down
 n/  - tremolo bar up
/n\  - tremolo bar inverted dip
 =   - hold bend; also acts as connecting device for hammers/pulls
 <> - volume swell (louder/softer)
 x   - on rhythm slash represents muted slash
 o   - on rhythm slash represents single note slash

Misc Legend
-----------
 |  - bar
||  - double bar
||o - repeat start
o|| - repeat end
*|  - double bar (ending)
 :  - bar (freetime)
 $  - Segno
 &  - Coda
Tempo markers -  = BPM(8/16=s8/s16), where s8 = swing 8ths, s16 = swing 16ths

comments
We did not receive enough feedback on this tab! Please rate:
print report bad tab
1 2 3 4 5
I want to post or [tab]
guest
You may want to rate the tab now too:
select rating
Please do not post tabs as comments. Select "correction" instead!