Oops, an error
Loading. Please wait.

We All Die Bass Tab

122 views 1 this week
no commentswrite comment
1 2 3 4 5
excellent!
x 3
add to favorites
launch autoscroll
font size
0
reset
guitar tuner
Tab Pro tools
  • play this tab
  • loop segment
  • change instrument
  • show fretboard
  • metronome
Autoscroll
slow
fast
+/-
esc
set tempo
stop
Contributor
Difficulty
Tuning
intermediate
C G C F A D
-----------------------------------------------------------------------------
                             We All Die - Wednesday 13
-----------------------------------------------------------------------------
Tabbed by: Andu Needle
E-mail: sulfur_in_my_lungs@yahoo.com

Intro:

F|-----------------------------------------------------|
C|-----------------------------------------------------|
G|-----------------------------------------------------|
C|-10-7-3-5--10-7-33-555555----------------------------|

F|-----------------------------------------------------|
C|-----------------------------------------------------|
G|----------7------------------------------------------|
C|-10101010---7777-10-3333-2-55555555------------------|(x2)

Verse:

F|-----------------------------------------------------|
C|-----------------------------------------------------|
G|----------7------------------------------------------|
C|-10101010---7777-10-3333-2-55555555------------------|(x4)

Chorus:

F|-----------------------------------------------------|
C|-----------------------------------------------------|
G|-----------------------------------------------------|
C|-33333333(x2)-55555555(x2)---------------------------|(x3)

F|-----------------------------------------------------|
C|-----------------------------------------------------|
G|-----------------------------------------------------|
C|-33333333(x2)-55555555-7777-9999---------------------|

Post chorus(the part where he sings "We all die"):

F|-----------------------------------------------------|
C|-----------------------------------------------------|
G|----------7------------------------------------------|
C|-10101010---7777-10-3333-2-55555555------------------|(x4)

Main riff again in the solo part.
The second verse is the same as the first one.
The second chorus is the same as the first one.
The second post chorus is the same as the first one.

Solo:

F|-----------------------------------------------------|
C|-----------------------------------------------------|
G|----------7------------------------------------------|
C|-10101010---7777-10-3333-2-55555555------------------|(x4)

Chorus 3 as the others!

Last post chorus:

F|-----------------------------------------------------|
C|-----------------------------------------------------|
G|----------7------------------------------------------|
C|-10101010---7777-10-3333-2-55555555------------------|(x4)

Ending:

After those 4 measures you go straight into the ending!

F|-----------------------------------------------------|
C|-----------------------------------------------------|
G|-----------------------------------------------------|
C|-10-7-3-5--10-7-33-555555-10~------------------------|

Attention: The -10101010- is actually the 10th fret. Not 1 and 0.
comments
We did not receive enough feedback on this tab! Please rate:
print report bad tab
1 2 3 4 5
I want to post or [tab]
guest
You may want to rate the tab now too:
select rating
Please do not post tabs as comments. Select "correction" instead!