Oops, an error
Loading. Please wait.

With Friends Like These Bass Tab

72 views 1 this week
no commentswrite comment
1 2 3 4 5
excellent!
x 4
add to favorites
launch autoscroll
font size
0
reset
guitar tuner
Tab Pro tools
  • play this tab
  • loop segment
  • change instrument
  • show fretboard
  • metronome
Autoscroll
slow
fast
+/-
esc
set tempo
stop
Contributor
Difficulty
Tuning
intermediate
D A D G B E
-----------------------------------------------------------------------------
                   With friends like these - Wednesday 13
-----------------------------------------------------------------------------
Tabbed by: Andu Needle
E-mail: sulfur_in_my_lungs@yahoo.com

Intro:

G|----------------------------------------------------------------|
D|----------------------------------------------------------------|
A|----------------------------------------------------------------|
D|-11--11--11--6~-------------------------------------------------|

G|----------------------------------------------------------------|
D|----------------------------------------------------------------|
A|----------------------------------------------------------------|
D|-11-4-66--11-4-66--11-4-66--46666-4444--------------------------|

Verse:

G|----------------------------------------------------------------|
D|----------------------------------------------------------------|
A|----------------------------------------------------------------|
D|-1~--11-4-66--11-4-66--1~--11-4-66--11-4-66---------------------|

Pre chorus:

G|----------------------------------------------------------------------------|
D|----------------------------------------------------------------------------|
A|----------------------------------------------------------------------------|
D|-33333333-66666666-11-4-66-11-4-66--33333333-66666666-44444444-66666666-----|

Chorus:

G|-----------------------------------------------------------------|
D|-----------------------------------------------------------------|
A|-----------------------------------------------------------------|
D|-11-4-66--11-4-66--11-4-66--46666-4444---------------------------|(x2)

The stop part between chorus and verse 2:

G|-----------------------------------------------------------------|
D|-----------------------------------------------------------------|
A|-----------------------------------------------------------------|
D|-11--11--11--6~--------------------------------------------------|

G|-----------------------------------------------------------------|
D|-----------------------------------------------------------------|
A|-----------------------------------------------------------------|
D|-11-4-66--11-4-66--11-4-66--46666-4444---------------------------|

Verse 2 like the first!
Pre chorus 2 like the first!
Chorus 2 like the first!

Before the solo:

G|-----------------------------------------------------------------|
D|-----------------------------------------------------------------|
A|-----------------------------------------------------------------|
D|-3333~-6666~-11-4-66--11-4-66------------------------------------|

G|-----------------------------------------------------------------|
D|-----------------------------------------------------------------|
A|-----------------------------------------------------------------|
D|-3333~-6666~-88888888(x2)----------------------------------------|

Solo:

G|-----------------------------------------------------------------|
D|-----------------------------------------------------------------|
A|-----------------------------------------------------------------|
D|-11-4-66--11-4-66--11-4-66--46666-4444---------------------------|(x2)

Pre chorus 3 like the others!
Chorus 3 like the others.

Ending:

G|-----------------------------------------------------------------|
D|-----------------------------------------------------------------|
A|-----------------------------------------------------------------|
D|-11--11--11--9-8-7-6-5-4-1~--1-----------------------------------|

Everywhere where you see -11-, those are 1s not 11s. Good luck.
comments
print report bad tab
I want to post or [tab]
guest
You may want to rate the tab now too:
select rating
Please do not post tabs as comments. Select "correction" instead!