Oops, an error
Loading. Please wait.

Amazing Horse chords

version 1
version 1

Whole song

Interactive

27,135 views 24 this week
4 commentsread comments
1 2 3 4 5
x 13
add to favorites
×
Save as Personal and add changes to this tab that will be seen only by you. Learn more ›
×
You can save this tab as Personal to edit and correct it or add notes. All changes will be seen only by you. Learn more »
launch autoscroll
font size
0
reset
transpose
0
reset
display chords
guitar tuner
edit
Autoscroll
slow
fast
+/-
esc
set tempo
stop
Strumming
There is no strumming pattern for this song yet. and get +5 IQ
Posted by: GubiiTheFish

- Capo 1

_________________________

Em
Look at my horse.
My horse is amazing.
C
Give it a lick.
D
Mmmm, it tastes just like raisins.

Em
I've a stroke of its mane.
It turns into a plane,
C
and then it turns back again
G                   D
when you tug on its winky.

Em
Oooh that's dirty!
Do you think so?
C
Well I better not show you
G             D
where the lemonade is made.

Em
Sweet lemonade,
Mmm sweet lemonade,
C
Sweet lemonade,
G          D
Yeah sweet lemonade.

--(Electronic Solo)--

C
Get on my horse.
D                         Em
I'll take you round the universe,
        G
and all the other places too.

C                            D
I think you'll find that the universe
Em
pretty much covers everything.
G                  Em
Shut up woman, get up on my horse!

- Then Repeat.
Suggest correction
Creating personal tab
Creating personal tab
You can edit any tab online and save it as your Personal.

You can edit, replace or remove any tab part or add personal notes – all changes will be seen only by you.

Personal tabs can be accessed anytime from any device, even offline.
Learn more »
comments
print report bad tab
4 comments total. Showing first comments.
0 reply
maucaq 10 Aug 01, 2011 10:57 AM

Perfect apart from the bit after the solo, which as far as I can see should be pretty much the same as the other verses. Also, the same chords are used during the solo...

0 reply
i 1 yo momma 10 Jun 08, 2012 01:30 PM

|---------------------------------------------------------------------|-
|--10-10-9-------10-10-9----------------------------------------------|-
|----------9-9-9---------9-9-9-----6-6-6---9-9-9---4-4-4---6-6-6------|-2x
|----------------------------------------7---------------6------------|-
|---------------------------------------------------------------------|-
|---------------------------------------------------------------------|-

Solo^

0 reply
i 1 yo momma 10 Jun 08, 2012 01:30 PM

|---------------------------------------------------------------------|-
|--10-10-9-------10-10-9----------------------------------------------|-
|----------9-9-9---------9-9-9-----6-6-6---9-9-9---4-4-4---6-6-6------|-2x
|----------------------------------------7---------------6------------|-
|---------------------------------------------------------------------|-
|---------------------------------------------------------------------|-

Solo^

guest
You may want to rate the tab now too:
select rating
Wanna post a correction for this tab? Suggest correction