Oops, an error
Loading. Please wait.

Ona Tańczy Dla Mnie Tab

7,890 views 12 this week
no commentswrite comment
1 2 3 4 5
3 more votes to show rating
add to favorites
launch autoscroll
font size
0
reset
how to read this tab
guitar tuner
Autoscroll
slow
fast
+/-
esc
set tempo
stop
Help us to improve Ultimate-Guitar.com Take our survey!
×
Author
Difficulty
novice
Band/Zespol: Weekend
Song/Piosenka: Ona Tanczy Dla Mnie
Tabbed by: 60Tribute

Chords: G#min B E F#
Akordy (Polska notacja chwytow): gis H E Fis



Intro
E||------------------4--|---------4-----4--7--4--|---------4--7--4--7--4--|
B||---------------4-----|------------7-----------|------------------------|
G||---------------------|------------------------|--4---------------------|
D||---------------------|--6---------------------|------------------------|
A||---------------------|------------------------|------------------------|
E||---------------------|------------------------|------------------------|


     
---------11--9--7--------|---------9--7--9--------|---------4-----4--7--4--|
-------------------11----|---------------------9--|------------7-----------|
-------------------------|------------------8-----|------------------------|
-------------------------|------------------------|--6---------------------|
--7----------------------|--9---------------------|------------------------|
-------------------------|------------------------|------------------------|


   
---------7--4--7--9--7--|---------4-----7--6----|---------9--9--7--------||
------------------------|------------7----------|------------------11--9-||
--4---------------------|-----------------------|------------------------||
------------------------|-----------------------|--4---------------------||
------------------------|--7--------------------|------------------------||
------------------------|-----------------------|------------------------||




Ref.: Ja uwielbiam Ja, Ona tu jest
i tanczy dla mnie.
Bo dobrze to wie, ze porwe Ja
i w sercu schowam na dnie booooo. x2

oooo x3

1. Moja dziewczyna patrzy czesto w oczy me
i nie ukrywam - sprawia to przyjemnosc.
Jak Ja kocham tylko moje serce wie,
gdy mnie caluje, oddalbym niejedno.
Jej ramiona ukojeniem dla mnie sa,
bo przy Niej czuje, jak smakuje milosc.
Jej kazda chwile pragne ofiarowac, bo
jest tego warta, nic sie nie zmienilo,
boo ja pragne Jej Jej, bo pragne Jej Jej, boooo ...

Ref.: Ja uwielbiam Ja, Ona tu jest
i tanczy dla mnie.
Bo dobrze to wie, ze porwe Ja
i w sercu schowam na dnie. x2

oooo x4


Notes/Notatki

Tylko te cztery chwyty przez cala piosenke. Zwrocic uwage na pauzy w graniu linie melodyczna

Only those four chords for the whole song. Pay attention to the pauses in the melody line.

Have Fun!

~60Tribute
Suggest correction
Give kudos to tab author, rate the tab!
1 2 3 4 5
comments
print report bad tab
guest
You may want to rate the tab now too:
select rating
Wanna post a correction for this tab? Suggest correction