Oops, an error
Loading. Please wait.

Boys Club tab

by Ween
829 views 12 this week
no commentswrite comment
1 2 3 4 5
2 more votes to show rating
add to favorites
×
Save as Personal and add changes to this tab that will be seen only by you. Learn more ›
×
You can save this tab as Personal to edit and correct it or add notes. All changes will be seen only by you. Learn more »
launch autoscroll
font size
0
reset
how to read this tab
guitar tuner
edit
Autoscroll
slow
fast
+/-
esc
set tempo
stop
  Chords Used -

    E         D         B        C#        F# 
 e|-4-|    e|-2-|    e|-2-|    e|-1-|    e|-6-|
 B|-5-|    B|-3-|    B|-4-|    B|-2-|    B|-7-|
 G|-4-|    G|-2-|    G|-4-|    G|-1-|    G|-6-|
 D|---|    D|---|    D|---|    D|---|    D|---|
 A|---|    A|---|    A|---|    A|---|    A|---|
 E|---|    E|---|    E|---|    E|---|    E|---|

There is not guitar the whole time during the verses, 
but it's more fun to play the chords than to just sit there.

-------------------------------------------------------------------------------------------------------

[Intro]

e|------2------4-------6---5--5----4--4-----4---2--2---2--2--|
B|------4------5-------7---6--6----5--5-----5---4--4---4--4--|
G|--4---4----4-4-----6-6---5--5----4--4-----4---4--4---4--4--|
D|-----------------------------------------------------------|
A|-----------------------------------------------------------|
E|-----------------------------------------------------------|


Repeat throughout:

e|----------2------4-------6---5--5----4--4-----4---2--2---2--2--|
B|----------4------5-------7---6--6----5--5-----5---4--4---4--4--|
G|--2-3-4---4----4-4-----6-6---5--5----4--4-----4---4--4---4--4--|
D|---------------------------------------------------------------|
A|---------------------------------------------------------------|
E|---------------------------------------------------------------|


[Verse 1]

 E              D         B    
"Take the time, have some fun"
 C#                F#   
"Go outside, make love in the sun, at Boys Club"


[Verse 2]

 E                D         B    
"Tell your woman, tell your man"
 C#                   F#   
"Go somewhere they've got to understand, it's boys club"


[Keyboard Solo]

Play this during the keyboard solo:

e|----------2------4-------6---5--5----4--4-----4---2--2---2--2--|
B|----------4------5-------7---6--6----5--5-----5---4--4---4--4--|
G|--2-3-4---4----4-4-----6-6---5--5----4--4-----4---4--4---4--4--|
D|---------------------------------------------------------------|
A|---------------------------------------------------------------|
E|---------------------------------------------------------------|


[Verse 3]
         E          
                 D           B    
"You can talk of the future, you can talk of the past"
         C#                 F#   
"You can go find yourself a nice piece of ass at Boys Club"



 
Suggest correction
Creating personal tab
Creating personal tab
You can edit any tab online and save it as your Personal.

You can edit, replace or remove any tab part or add personal notes – all changes will be seen only by you.

Personal tabs can be accessed anytime from any device, even offline.
Learn more »
Give kudos to tab author, rate the tab!
1 2 3 4 5
comments
print report bad tab
guest
You may want to rate the tab now too:
select rating
Wanna post a correction for this tab? Suggest correction