Oops, an error
Loading. Please wait.

Buckingham Green Bass Tab

version 1
version 1

Live

Interactive

by Ween
315 views 6 this week
no commentswrite comment
1 2 3 4 5
3 more votes to show rating
add to favorites
launch autoscroll
font size
0
reset
guitar tuner
Autoscroll
slow
fast
+/-
esc
set tempo
stop
Help us to improve Ultimate-Guitar.com Take our survey!
×
Author
Difficulty
novice
-------------------------------------------------------------------------------
                             Buckingham Green (Live) - Ween
-------------------------------------------------------------------------------
Album: Live in Chicago
Tabbed by John Cadaver
email: Johncadaver@hotmail.com

Tuning: EADG

Song is 3min 57sec. Bass doesn’t kick in until 1min 4sec.

The rhythm for the bass plays an accented note on the 1 count, 
the AND of ‘2 and’ and the 4 count.

Solo part 1 (1:04 to 1:55)   play through x2    4/4 timing @ 75bpm.
  1     2     3     4      1     2     3     4   
G|------------------------|------------------------|
D|------------------------|------------------------|
A|------------------------|------------------------|
E|5--5--5--5--5--5--5--5\1|1--1--1--1--1--1--1--1--|

G|------------------------|------------------------|
D|------------------------|------------------------|
A|3--3--3--3--3--3--3--3/5|5--5--5--5--5--5--5--5--|
E|------------------------|------------------------|

G|------------------------|------------------------|
D|2--2--2--2--2--2--2--2--|------------------------|
A|------------------------|------------------------|
E|------------------------|0--0--0--0--0--0--0--0--|

G|------------------------|------------------------|
D|----------9~~~~~~~~~~7--|---9~~~~~~~~7-----------|
A|0--7/-10----------------|10-------------7--------|
E|------------------------|------------------7--5--|


Solo part 2 (1:55 to 2:42)   play through x2    4/4 timing @ 82bpm.
G|------------------------|------------------------|
D|------------------------|------------------------|
A|------------------------|------------------------|
E|5--5--5--5--5--5--5--5--|5--5--5--5--5--5--8--8--|

G|------------------------|------------------------|
D|------------------------|------------------------|
A|5--5--5--5--5--5--5--5--|5--5--5--5--5--5--7--7--|
E|------------------------|------------------------|

G|------------------------|------------------------|
D|------------------------|------------------------|
A|8--8--8--8--8--8--8--8--|------------------------|
E|------------------------|1--1--1--1--1--1--1--1--|

G|------------------------|------------------------|
D|------------------------|------------------------|
A|------------------------|7-----5-----------------|
E|0--0--0--0--0--0--0--0--|------------8-----7-----|


Between end of solo and start of final verse (2:42 to 2:48) @ 80bpm
G|------------------------|------------------------|
D|------------------------|------------------------|
A|------------------------|------------------------|
E|5--5--5--5--5--5--5--5--|5--5--5--5--5--5--5--5--|


Verse with bass (2:48 to end)   play through x2    4/4 timing @ 80bpm.

G|------------------------|------------------------|
D|------------------------|------------------------|
A|------------------------|------------------------|
E|5--5--5--5--5--5--5--5\1|1--1--1--1--1--1--1--1--|
1.Summon the queen                       Spoke the 
2.A child without an eye                 Made her 

G|------------------------|------------------------|
D|------------------------|------------------------|
A|3--3--3--3--3--3--3--3/5|5--5--5--5--5--5--5--5--|
E|------------------------|------------------------|
1.child of eye            It's time to fly         
2.Mother cry              Why ask why?

G|------------------------|------------------------|
D|2--2--2--2--2--2--2--2--|------------------------|
A|------------------------|------------------------|
E|------------------------|0--0--0--0--0--0--0--0--|
1.Turn fire to steam
2.She kept her child clean

G|------------------------|------------------------|
D|----------9~~~~~~~~~~7--|---9~~~~~~~~7-----------|
A|0--7/-10----------------|10-------------7--------|
E|------------------------|------------------7--5--|
1.On Buckingham Green.  
2.On Buckingham Green.

Timing slows down at the end. Bass plays A (5th fret E string or open A string) ad nauseum.

~ used to indicate sustained note.
/ used to indicate slide up.
\ used to indicate slide down.
Suggest correction
Give kudos to tab author, rate the tab!
1 2 3 4 5
comments
print report bad tab
guest
You may want to rate the tab now too:
select rating
Wanna post a correction for this tab? Suggest correction