Oops, an error
Loading. Please wait.

Buckingham Green tab

version 1
version 1

Whole song

Interactive

by Ween
18,882 views 21 this week
5 commentsread comments
1 2 3 4 5
x 9
add to favorites
×
Save as Personal and add changes to this tab that will be seen only by you. Learn more ›
×
You can save this tab as Personal to edit and correct it or add notes. All changes will be seen only by you. Learn more »
launch autoscroll
font size
0
reset
how to read this tab
guitar tuner
edit
Autoscroll
slow
fast
+/-
esc
set tempo
stop
Author
Difficulty
intermediate
these are the chords used through out the song so listen to the song and figure out the 
 and timing for each.
   Am    F    C   Cmaj7 Dm   Em    E   E7    A
e|-0-  -1-  -0-  -0-   -1-  -0-  -0-  -0-  -0-
B|-1-  -1-  -1-  -0-   -3-  -0-  -0-  -3-  -0-
G|-2-  -2-  -0-  -0-   -2-  -0-  -1-  -1-  -2-
D|-2-  -3-  -2-  -2-   -0-  -2-  -2-  -2-  -2-
A|-0-  -3-  -3-  -3-   -0-  -2-  -2-  -2-  -0-
E|-0-  -1-  -x-  -x-   -x-  -0-  -0-  -0-  -0-

[verse] Am,F,C,Dm,Em,E
 Am
A child without an eye (F)
C
made her mother cry
Dm
why ask why
   Em
she kept her child clean
E
on Buckingham Green (same pattern for other verses)

 [Fill 1]
e|---------------------------------0--------------|
B|------3--0--------3--0-----------0--------------|
G|------------------------------2-----------------|
D|---2-----------------------2--------------------|
A|3--------------3--------0-----------------------|
E|------------------------------------------------|

 [Interlude/solo]
e|------------------7h8p7-5-----------------------------------------------|
B|------------------------------------------8---/-12----10----8-----10----|
G|------------------------------------------------------------------------|
D|------------------------------------------------------------------------|
A|------------------------------------------------------------------------|
E|------------------------------------------------------------------------|

e|-------------------------------------------------------------------------|
B|6-----------------6--8-/10----8-----6-----8-----5------------------------|
G|------------------------------------------------------------------5--7---|
D|-------------------------------------------------------------------------|
A|-------------------------------------------------------------------------|
E|-------------------------------------------------------------------------|

e|------------------------------------------------------------------------|
B|------------------------------------------------------------------------|
G|9-----7-----5-----9-----7-----------------7--9-/10----9-----7---/-10----|
D|------------------------------------------------------------------------|
A|------------------------------------------------------------------------|
E|------------------------------------------------------------------------|

e|------------------------------------------------------------------------|
B|------------------------8-----------------8-----9-----------------------|
G|9-----------------9--10----10-9-----10----------------------------------|
D|------------------------------------------------------------------------|
A|------------------------------------------------------------------------|
E|------------------------------------------------------------------------|

e|------------------7h8p7-5-----------------------------------------------|
B|------------------------------------------8---/-12----10----8-----10----|
G|------------------------------------------------------------------------|
D|------------------------------------------------------------------------|
A|------------------------------------------------------------------------|
E|------------------------------------------------------------------------|

e|8-----------------------------------------------|
B|------------------------------------------------|
G|------------------------------------------------|
D|------------------------------------------------|
A|------------------------------------------------|
E|------------------------------------------------|

************************************

| x  Dead note
| h  Hammer-on
| p  Pull-off
| /  Slide up

************************************

            
            
Suggest correction
Creating personal tab
Creating personal tab
You can edit any tab online and save it as your Personal.

You can edit, replace or remove any tab part or add personal notes – all changes will be seen only by you.

Personal tabs can be accessed anytime from any device, even offline.
Learn more »
comments
print report bad tab
5 comments total. Showing first comments.
0 reply
ShyGuy {IZAIAH} 40 Nov 17, 2007 12:21 PM

your missing the big solo and the chord solo..

0 reply
jeff.cardo 10 Apr 27, 2013 01:34 PM

The chords behind the heavier solo are Am/Am/C/D/F/F7/E7
Hope that helps

0 reply
jeff.cardo 10 Apr 27, 2013 01:35 PM

And the Solo

Amin.

E:----------------------------------------------|
B:------------------20--------------------------|
G:--17------17--19------19----------------------|(quick bend and release)
D:------19--------------------------------------|
A:----------------------------------------------|
E:----------------------------------------------|

Amin.

E:---------------------------------------------|
B:---------------------------------------------|
G:--17-----17--19--19(partial bend)--17--19----|
D:-----19--------------------------------------|
A:---------------------------------------------|
E:---------------------------------------------|

Cmaj.-Dmaj.

E:--------------20--19--17----------------------|
B:--------------------------20--19--17----------|
G:--17--19--17--------------------------19------|(freak
D:----------------------------------------------|out on this
A:----------------------------------------------|note w/bending
E:----------------------------------------------|etc.)

Fmaj. F7

E:-----------------------------------------------|
B:-----------------------------------------------|
G:--17----------17(h/p)19--17----------17--19----|(full
D:------19---------------------19----------------|bend)
A:----------20---------------------20------------|
E:-----------------------------------------------|

E7

E:----------16----------------------------------|
B:------17------17------------------------------|
G:--17--------------17--16--17--19--19--17--16--|
D:----------------------------------------------|
A:----------------------------------------------|
E:----------------------------------------------|

guest
You may want to rate the tab now too:
select rating
Wanna post a correction for this tab? Suggest correction