Oops, an error
Loading. Please wait.

Someday chords

version 2
version 2

Whole song

by Ween
268 views 3 this week
no commentswrite comment
1 2 3 4 5
3 more votes to show rating
add to favorites
×
Save as Personal and add changes to this tab that will be seen only by you. Learn more ›
×
You can save this tab as Personal to edit and correct it or add notes. All changes will be seen only by you. Learn more »
launch autoscroll
font size
0
reset
transpose
0
reset
simplify chords
display chords
guitar tuner
edit
Autoscroll
slow
fast
+/-
esc
set tempo
stop
Author
Difficulty
Strumming
There is no strumming pattern for this song yet. and get +5 IQ
Artist: Ween
Song: Someday
Tabbed by: Rolle Heinonen

Standard tuning

Chords used:

Bm/G F#m   A   Gm    D    Bm   E  F#m/D  (Dsus4)

e|-2----2----0----3----2----2----0----2-------3------|
A|-3----2----2----3----3----3----0----2-------3------|
D|-4----2----2----3----2----4----1----2-------2------|
G|-0----4----2----5----0----4----2----0-------0------|
B|-x----4----0----5---------2----2-------------------|
E|-3----2---------3--------------0-------------------|


[Intro]

e|------------------------------|
A|-10---12---14---10----14-14---|
D|------------------------------|
G|-11---12---14---11----14-14---|
B|-0----0----0----0-----0--0----|
E|------------------------------|

(Not gonna tab note to note the strumming pattern, listen to the track)
e|----2----3p2----2------5----4----|
A|---3--------3---3------5----4----|
D|--2----------2--2------6----5----|
G|-0--------------0------7----6----|
B|-----------------------7----6----|
E|-----------------------5----4----|(or just the bass notes)

Bm/G
Someday
                          F#m         A
You will hear me sing a love song

Bm/G
One day
                            F#m          A
I'll find a girl to call my own


Gm                D  (Dsus4) D
Bringing it all together

Gm             D (dsus) D
Doing it on my own

Bm                            E
    Walking hand in hand like lovers


And if you

wished upon the moon (you can also play A only in this if you want)
e|------------------------------------|
A|-10------12------14---10----14-14---|
D|------------------------------------|
G|-11------12------14---11----14-14---|
B|-0-------0-------0----0-----0--0----|
E|------------------------------------|

                      D        Dsus4 D
Then it maybe one day soon
e|-------------------------2----3p2------5----4----|
A|------------------------3--------3-----5----4----|
D|-----------------------2----------2----6----5----|
G|----------------------0----------------7----6----|
B|---------------------------------------7----6----|
E|---------------------------------------5----4----|


Bm/G
Sunday     (Sunday)

F#m                 A
Monday     (Monday)

Bm/G         F#m         A
Tuesday - is pizza day - pizza day

Gm                D  (Dsus4) D
Bringing it all together

Gm             D (Dsus) D
Doing it on my own

Bm                            E
    Walking hand in hand like lovers


And if you

wished upon the moon (you can also play A only in this if you want)
e|------------------------------------|
A|-10------12------14---10----14-14---|
D|------------------------------------|
G|-11------12------14---11----14-14---|
B|-0-------0-------0----0-----0--0----|
E|------------------------------------|

                      D        Dsus4 D
Then it maybe one day soon
e|-------------------------2----3p2------|
A|------------------------3--------3-----|
D|-----------------------2----------2----|
G|----------------------0----------------|
B|---------------------------------------|
E|---------------------------------------|

[Solo]

D        F#m/D
Gm       Gm
D        F#m/D

e|--5------------------------5--4--------|
A|--5------------------------5--4--------|
D|--6------------------------6--5--------|
G|--7------------------------7--6--------|
B|--7------------------------7--6--------|
E|--5------------------------5--4--------|


Then same chords as in verse

Bm/G
(Someday)
                          F#m         A
(You will hear me sing a love song)

Bm/G
(One day)
                            F#m          A
(I'll find a girl to call my own)


Gm                D  (Dsus4) D
(Bringing it all together)

Gm                D  (Dsus4) D
(Doing it on my own)

Bm                            E
   (Walking hand in hand like lovers)


[Ending]

e|------------------------------------|
A|-10------12------14---10----14-14---|
D|------------------------------------|
G|-11------12------14---11----14-14---|
B|-0-------0-------0----0-----0--0----|
E|------------------------------------|
Suggest correction
Creating personal tab
Creating personal tab
You can edit any tab online and save it as your Personal.

You can edit, replace or remove any tab part or add personal notes – all changes will be seen only by you.

Personal tabs can be accessed anytime from any device, even offline.
Learn more »
Give kudos to tab author, rate the tab!
1 2 3 4 5
comments
print report bad tab
guest
You may want to rate the tab now too:
select rating
Wanna post a correction for this tab? Suggest correction