Oops, an error
Loading. Please wait.

Transdermal Celebration Tab

version 1
version 1

Whole song

by Ween
20,845 views 30 this week
3 commentsread comments
1 2 3 4 5
x 6
add to favorites
launch autoscroll
font size
0
reset
how to read this tab
guitar tuner
×
Best way to learn
"Transdermal Celebration"
Autoscroll
slow
fast
+/-
esc
set tempo
stop
Author
[Intro]
e|----0-0--0--0-----------------------------0-------|
B|----2/4--2--0--0------0--0--0--0-0--0--0--0-------|
G|-o-------------2------1--2--1--2/4--2--1--1----o--|
D|-o----------------------------------------2----o--|
A|------------------------------------------2-------|
E|------------------------------------------0-------|

[Verse]
     B
Transdermal celebration
A
Caused a slight mutation
       E
In the rift
   B
It toppled down a nation
     A                              E
And left the people running for the hills
        B
But the mutants that I see
            A
Shine their beauty unto me
           E
I wish you could see them
E, Eb, Db, B, A
    B
Tectonic tribulation
A                         E
Formed a crust of green beyond the reef
B
Waves fell in formation
A                                    E
Cause the plants to bend with spi-ked leaves
B
I'm growing with the land
A                                  E
Time has taken my hands and let me touch them
E, Eb, Db, B, A
Eb   E
Hey, hey,
Eb        E     Eb Db   E
A billion miles to Mark A
Eb          E    Eb    E
Lay on the lawn, he's already home
Eb   Db  E                    B
When the morning ray hits his face

[Instrumental]
e|-----------------------------4-4-----|
B|-4-4-4-5-4-2-----4-4-4-5-4-2-0-------|
G|--------------------------2-1--------|
D|-------------------------------------|
A|-------------------------------------|
E|-------------------------------------|

e|-------------------------------------------------16----14-12-14-11-|
B|-16-16-16-17-16-14-----16-16-16-17-16-14-12------------------------|
G|-------------------------------------------14-13-------------------|
D|-------------------------------------------------------------------|
A|-------------------------------------------------------------------|
E|-------------------------------------------------------------------|

[Verse]
     B
Transdermal celebration
A
Jets flew in formation
        E
I could see them
B
Dropping the crustaceans
A                                 E
Leaving trails of flames in their wake
     B
But where is the mutation
         A                            E
Who once told me it was safe, I can't find him
E, Eb, Db, B, A
E    Eb
Hey, hey,
E         Eb    Eb Db   E
A billion miles to Mark A
E          Eb         E       Eb
Lay on the lawn, he's already home
Eb    Db E                    B
When the morning ray hits his face

[Outro]
e|-----------------------------4-4-----|
B|-4-4-4-5-4-2-----4-4-4-5-4-2-0-------|
G|--------------------------2-1--------|
D|-------------------------------------|
A|-------------------------------------|
E|-------------------------------------|

e|-------------------------------------------------16----14-12-14-11-|
B|-16-16-16-17-16-14-----16-16-16-17-16-14-12------------------------|
G|-------------------------------------------14-13-------------------|
D|-------------------------------------------------------------------|
A|-------------------------------------------------------------------|
E|-------------------------------------------------------------------|


************************************

| /  Slide up

************************************
Suggest correction
comments
print report bad tab
3 comments total.
0 reply
count dragula 10 Feb 21, 2005 07:00 PM

The intro should be played more like this:
Intro -w/capo first fret
e:--0---0-0-0-0--00----------------------|
B:--2s4-2-----2--22-----------------0----|
G:--------4-2-2--22-2p1h2p1-2s4-2-1-1----|
D:------------2--22-----------------2----| X 2
A:------------0--00-----------------2----|
E:----------------------------------0----|

0 reply
ShyGuy {IZAIAH} 40 Jul 05, 2006 06:25 PM

if u dont want a capo u can play it like this
e-0-0-0-0---0---0-0-0-0---0---0-0-0---|
B-2s4s2-0---0---0-0-0-0---0---0-0-0---|
G-----------2---1-2-1-2-s-4-s-2-1-1---| X2
D---------------------------------2---|
A---------------------------------2---|
E-------------------------------------|

this is how Mickey (the guitarist in ween)plays the intro when he doesnt have a capo.

0 reply
ShyGuy {IZAIAH} 40 Jul 05, 2006 06:26 PM

o and ur chord chord changees are wrong and ur solo is wrong.. i'll tab this laterzz...

guest
You may want to rate the tab now too:
select rating
Wanna post a correction for this tab? Suggest correction