Oops, an error
Loading. Please wait.

With My Own Bare Hands bass

by Ween
508 views 1 this week
1 commentread comment
1 2 3 4 5
2 more votes to show rating
add to favorites
×
Save as Personal and add changes to this tab that will be seen only by you. Learn more ›
×
You can save this tab as Personal to edit and correct it or add notes. All changes will be seen only by you. Learn more »
launch autoscroll
font size
0
reset
guitar tuner
edit
Autoscroll
slow
fast
+/-
esc
set tempo
stop
Author
Difficulty
------------------------------------------------------------------------------- 
                             With My Own Bare Hands - Ween 
------------------------------------------------------------------------------- 
Album: La Cucaracha
Tabbed by John Cadaver 
email: Johncadaver@hotmail.com 
 
Tuning: EADG
4/4 timing at 82bpm.

The verses do not change in their pattern. The fills in the chorus are
The part where there is variation.

Intro
  1       2       3       4        1       2       3       4        
G|--------------------------------|--------------------------------|
D|--------------------------------|--------------------------------|
A|4-------4-4-4-4-4---------------|------------------------7^8-----|
E|--------------------4---4---4---|4-------2-------4---------------|


Verses
G|--------------------------------|--------------------------------|
D|--------------------------------|--------------------------------|
A|4---------------4-4-------------|4-----4-----4-4---------7^8-----|
E|--------4---7-4---------4---7-4-|----------------4---7-----------|
 I could build and aeroplane that  travels over    lands

G|--------------------------------|--------------------------------|
D|--------------------------------|--------------------------------|
A|4---------------4-4-------------|4-----4-----4-4-----------------|
E|--------4---7-4---------4---7-4-|----------------4-----7-----0---|
 I could take your DNA         and replicate a man


Chorus
G|--------------------------------|--------------------------------|
D|--------6---4--6--4-----4---6---|--------6-------6-------6-------|
A|--------------------6-----------|--------------------------------|
E|4-------------------------------|4-------------------------------|
 I could do so    many things                                 with my

G|--------------------------------|--------------------------------|
D|--------------------------------|--------------------------------|
A|4-------4-------4---4---4-4-4-4-|4-------------------------------|
E|--------------------------------|----4---4---4---4-------2-------|
  own     bare    hands

  1 e & a 2 e & a 3 
G|----------------|
D|----------------|
A|--------7^8-----|
E|4---------------|


Verse 2
G|--------------------------------|--------------------------------|
D|--------------------------------|--------------------------------|
A|4---------------4-4-------------|4-----4-----4-4---------7^8-----|
E|--------4---7-4---------4---7-4-|----------------4---7-----------|
I'd love to be your ass sticker,   stick it up in your ass

G|--------------------------------|--------------------------------|
D|--------------------------------|--------------------------------|
A|4---------------4-4-------------|4-----4-----4-4-----------------|
E|--------4---7-4---------4---7-4-|----------------4-----7-----0---|
I'm gonna be your lawn mower and   cut your fucking    grass


Chorus
G|--------------------------------|--------------------------------|
D|--------------------------------|--------------------------------|
A|--------------------------------|--------------------------------|
E|4-------4-------4-------4-------|4-------4-------4-------4-------|
 I could do so    many things                                 with my

G|--------------------------------|--------------------------------|
D|--------------------------------|--------------------------------|
A|4-------4-------4---4---4-4-4-4-|4-------------------------------|
E|--------------------------------|----4---4---4---4-------2-------|
  own     bare    hands

  1 e & a 2 e & a 3 
G|----------------|
D|----------------|
A|--------7^8-----|
E|4---------------|


Solo 1
G|--------------------------------|--------------------------------|
D|--------------------------------|--------------------------------|
A|4---------------4-4-------------|4-----4-----4-4---------7^8-----|
E|--------4---7-4---------4---7-4-|----------------4---7-----------|

G|--------------------------------|--------------------------------|
D|--------------------------------|--------------------------------|
A|4---------------4-4-------------|4-----4-----4-4-----------------|
E|--------4---7-4---------4---7-4-|----------------4-----7-----0---|

G|--------------------------------|--------------------------------|
D|--------6---4--6--4-----4---6---|--------6-4----4----6-----------|
A|--------------------6-----------|------------6-------------------|
E|4-------------------------------|4-------------------------------|
 
G|--------------------------------|--------------------------------|
D|--------------------------------|--------------------------------|
A|4-------4-------4---4---4-4-4-4-|4-------------------------------|
E|--------------------------------|----4---4---4---4-------2-------|

  1       2       3
G|----------------|
D|----------------|
A|--------7^8-----|
E|4---------------|


Verse 3
G|--------------------------------|--------------------------------|
D|--------------------------------|--------------------------------|
A|4---------------4-4-------------|4-----4-----4-4---------7^8-----|
E|--------4---7-4---------4---7-4-|----------------4---7-----------|
  She's gonna be my cock professor,studying my    dick

G|--------------------------------|--------------------------------|
D|--------------------------------|--------------------------------|
A|4---------------4-4-------------|4-----4-----4-4-----------------|
E|--------4---7-4---------4---7-4-|----------------4-----7-----0---|
 She's gonna get a masters degree in fucking me


Chorus 
G|--------------------------------|--------------------------------|
D|--------6-------6-------6-4-----|-------------------------6------|
A|----------------------------6-4-|--------------------4-6---------|
E|4-------------------------------|7-4-----4--2--4--7--------------|
 I could do so    many things                                 with my

G|--------------------------------|--------------------------------|
D|--------------------------------|--------------------------------|
A|4-------4-------4---4---4-4-4-4-|4-------------------------------|
E|--------------------------------|----4---4---4---4-------2-------|
  own     bare    hands

  1       2       3
G|----------------|
D|----------------|
A|--------7^8-----|
E|4---------------|


Verse 4
G|--------------------------------|--------------------------------|
D|--------------------------------|--------------------------------|
A|4---------------4-4-------------|4-----4-----4-4---------7^8-----|
E|--------4---7-4---------4---7-4-|----------------4---7-----------|
Take a shit on a bitch, shit fuck bubbajibba sucking on my shit

G|--------------------------------|--------------------------------|
D|--------------------------------|--------------------------------|
A|4---------------4-4-------------|4-----4-----4-4-----------------|
E|--------4---7-4---------4---7-4-|----------------4-----7-----0---|
Kicking with a pussy gonna jammer, motherfucker, suck my fucking dick


Chorus
G|--------------------------------|--------------4/8----8----------|
D|------------------------6-4-----|-------4-4--6-------------------|
A|----------------------------6-4-|--------------------------------|
E|4-------4-------4---------------|7-4-4---------------------------|
 I could do so    many things                                 with my

G|--------------------------------|--------------------------------|
D|--------------------------------|--------------------------------|
A|4-------4-------4---4---4-4-4-4-|4-------------------------------|
E|--------------------------------|----4---4---4---4-------2-------|
  own     bare    hands                                   

  1       2       3       
G|----------------|
D|----------------|
A|--------7^8-----|
E|4---------------|
  Fuck it!


Solo 2
G|--------------------------------|--------------------------------|
D|--------------------------------|--------------------------------|
A|4---------------4-4-------------|4-----4-----4-4---------7^8-----|
E|--------4---7-4---------4---7-4-|----------------4---7-----------|

G|--------------------------------|--------------------------------|
D|--------------------------------|--------------------------------|
A|4---------------4-4-------------|4-----4-----4-4-----------------|
E|--------4---7-4---------4---7-4-|----------------4-----7-----0---|

G|--------------------------------|--------------------------------|
D|--------6-------6-------6-------|--------------------------------|
A|--------------------------------|--------------------------------|
E|4-------------------------------|4-------4-------4---------------|
  I could do so many things                                 with my 


Ending
G|--------------------------------|--------------------------------|
D|--------------------------------|--------------------------------|
A|4-------4-------4---4---4-4-4-4-|4-------------------------------|
E|--------------------------------|----4---4---4---4/--13--13------|
  own     bare    hands                                     With my

G|--------------------------------|--------------------------------|
D|--------------------------------|--------------------------------|
A|4-------4-------4---4---4-4-4-4-|4-------------------------------|
E|--------------------------------|----4---4---4---4/--13\-4-------|
  own     bare    hands                                    with my

G|--------------------------------|--------------------------------|
D|--------------------------------|--------------------------------|
A|4-------4-------4---4---4-4-4-4-|4-------------------------------|
E|--------------------------------|----4---4---4---4/--13----------|
  own     bare    hands                                    with my

G|--------------------------------|--------------------------------|
D|--------------------------------|--------------------------------|
A|4-------4-------4---4---4-4-4-4-|4-------------------------------|
E|--------------------------------|----4---4---4---4---------------|
  own     bare    hands                                   

            
            
Suggest correction
Creating personal tab
Creating personal tab
You can edit any tab online and save it as your Personal.

You can edit, replace or remove any tab part or add personal notes – all changes will be seen only by you.

Personal tabs can be accessed anytime from any device, even offline.
Learn more »
Give kudos to tab author, rate the tab!
1 2 3 4 5
comments
print report bad tab
1 comment total.
+1 reply
john.haralampop 20 Sep 24, 2016 12:12 PM

Awesome! Could you please do the guitar part?

guest
You may want to rate the tab now too:
select rating
Wanna post a correction for this tab? Suggest correction